Cifra Club

Não Estamos Sozinhos

Spazio

Cifra: Principal (violão e guitarra)
Selo Cifra Club: esta cifra foi revisada para atender aos critérios oficiais da nossa Equipe de Qualidade.
tom: Bb
INTRODUCAO                           
e|-------------------------------------|------------------------------------|
b|-------------------------------------|------------------------------------|
g|-----7-----7-----8------7-----5------|-----7-----7-----8------7-----5-----|
d|-----x-----x-----x------x-----x------|-----x-----x-----x------x-----x-----|
a|--0--5--0--5--0--6---0--5--0--3------|--0--5--0--5--0--6---0--5--0--3-----|
D|--0-----0-----0------0-----0---------|--0-----0-----0------0-----0--------|
  g1 - Distorcida



e|-------------------------------------|------------------------------------|
b|-------------------------------------|------------------------------------|
g|-------------------------------------|------------------------------------|
d|-------------------------------------|------------------------------------|
a|-------------------------------------|--0---------------------------------|
D|-------------------------------------|--0---------------------------------|
  g2 - Distorcida



e|-------------------------------------|------------------------------------|
b|-------------------------------------|------------------------------------|
g|-----7-----7-----8------7-----5------|-----7-----7-----8------7-----5-----|
d|-----x-----x-----x------x-----x------|-----x-----x-----x------x-----x-----|
a|--0--5--0--5--0--6---0--5--0--3------|--0--5--0--5--0--6---0--5--0--3-----|
D|--0-----0-----0------0-----0---------|--0-----0-----0------0-----0--------|
  g1 - Distorcida



e|-------------------------------------|------------------------------------|
b|-------------------------------------|------------------------------------|
g|-------------------------------------|------------------------------------|
d|-------------------------------------|------------------------------------|
a|-0-----------------------------------|--0---------------------------------|
D|-0-----------------------------------|--0---------------------------------|
  g2 - Distorcida



e|-------------------------------------|------------------------------------|
b|-------------------------------------|------------------------------------|
g|-----7-----7-----8------7-----5------|-----7-----7-----8------7-----5-----|
d|-----x-----x-----x------x-----x------|-----x-----x-----x------x-----x-----|
a|--0--5--0--5--0--6---0--5--0--3------|--0--5--0--5--0--6---0--5--0--3-----|
D|--0-----0-----0------0-----0---------|--0-----0-----0------0-----0--------|
  g1 - Distorcida



e|--10---------------------------------|--10--------------------------------|
b|--------10-----------10-------10-----|--------10--------------------------|
g|--------------10-----------10--------|--------------10--------------------|
d|-------------------------------------|------------------------------------|
a|-------------------------------------|------------------------------------|
D|-------------------------------------|------------------------------------|
  g2 - Dist c/ Flanger



e|-------------------------------------|------------------------------------|
b|-------------------------------------|------------------------------------|
g|-------------------------------------|--3---3--3----3---3--3--------------|
d|-0-0-0--0--0-1----0-0-0--0--0-1------|--3---3--3----3---3--3--------------|
a|-0-0-0--0--0-1----0-0-0--0--0-1------|--1---1--1----1---1--1--------------|
D|-0-0-0--0--0-1----0-0-0--0--0-1------|------------------------------------|
  g1 + g2 - Dist  (tocar 4 veses)
  P.M. somente na nota D


e|--10---------------------------------|------------------------------------|
b|---------10------------10------------|------------------------------------|
g|----------------10-----------10------|------------------------------------|
d|-------------------------------------|------------------------------------|
a|-------------------------------------|------------------------------------|
D|-------------------------------------|------------------------------------|
  g2 - Dist c/ Flanger


BASE
e|-------------------------------------|------------------------------------|
b|-------------------------------------|------------------------------------|
g|--7-7-7-7-7-7-------7-7-7-7-7--------|--8-8-8-8--8-8-8-8-----------14--12-|
d|--x-x-x-x-x-x-0--0--x-x-x-x-x--------|-------------------0----------------|
a|--5-5-5-5-5-5-0--0--5-5-5-5-5--0-----|--6-6-6-6--6-6-6-6-0--6-6-6--12--10-|
D|--------------0--0-------------0-----|-------------------0----------------|
  g1 - Dist



e|-------------------------------------|------------------------------------|
b|-------------------------------------|-------------------------6-p-5------|
g|------------5-7----------------------|------------7-5-----------------5---|
d|----7------------7---------5-h-7-----|-----7-------------7--5-------------|
a|--5-----5-------------5--------------|--6-----6---------------------------|
D|-------------------------------------|------------------------------------|
  g2 - Drive c/ Tremolo



e|-------------------------------------|------------------------------------|
b|-------------------------------------|------------------------------------|
g|--7-7-7-7-7-7-------7-7-7-7-7--------|--8-8-8-8--8-8-8-8-----------14--12-|
d|--x-x-x-x-x-x-0--0--x-x-x-x-x--------|-------------------0----------------|
a|--5-5-5-5-5-5-0--0--5-5-5-5-5--0-----|--6-6-6-6--6-6-6-6-0--6-6-6--12--10-|
D|--------------0--0-------------0-----|-------------------0----------------|
  g1 - Dist



e|-------------------------------------|------------------------------------|
b|-------------------------------------|-------------------------6-p-5------|
g|------------5-7----------------------|------------7-5-----------------5---|
d|----7------------7---------5-h-7-----|-----7-------------7--5-------------|
a|--5-----5-------------5--------------|--6-----6---------------------------|
D|-------------------------------------|------------------------------------|
  g2 - Drive c/ Tremolo



e|-------------------------------------|------------------------------------|
b|-------------------------------------|------------------------------------|
g|--7-7-7-7-7-7-------7-7-7-7-7--------|--8-8-8--8-8-8----------------------|
d|--x-x-x-x-x-x-0--0--x-x-x-x-x--------|------------------------------------|
a|--5-5-5-5-5-5-0--0--5-5-5-5-5--0-----|--6-6-6--6-6-6----------------------|
D|--------------0--0-------------0-----|------------------------------------|
  g1 - Dist



e|-------------------------------------|----------------10------------------|
b|-------------------------------------|--------------------10-------10-----|
g|------------5-7----------------------|-----------5-7----------10-------10-|
d|----7------------7---------5-h-7-----|----7-------------------------------|
a|--5-----5-------------5--------------|--6-----6---------------------------|
D|-------------------------------------|------------------------------------|
  g2 - Drive c/ Tremolo                                 | + Flanger


PRE-REFRAO
e|-------------------------------------|------------------------------------|
b|-------------------------------------|------------------------------------|
g|-----7------7-----8--------7-----5---|------------------------------------|
d|-----7-------------------------------|------------------------------------|
a|--0--5---0--5--0--6-----0--5--0--3---|------------------------------------|
D|--0------0-----0--------0-----0------|------------------------------------|
  g1 + g2 - Dist


REFRAO
e|-------------------------------------|------------------------------------|
b|-------------------------------------|------------------------------------|
g|-3-------3--3------3--------3---3----|------------------------------------|
d|-3-------3--3------3--------3---3----|------------------------------------|
a|-1-------1--1------1--------1---1----|-0--0--0--0--0--1--0--0--0--0--0--1-|
D|-------------------------------------|-0--0--0--0--0--1--0--0--0--0--0--1-|
  g2 - Dist



e|-------------------------------------|------------------------------------|
b|-------------------------------------|------------------------------------|
g|-3------3--3---3-/-5-/-3-/-5-/-7-7---|------------------------------------|
d|-------------------------------------|------------------------------------|
a|-1------1--1---1-/-3-/-1-/-3-/-5-5---|-0--0--0--0--0--1--0--0--0--0--0--1-|
D|-------------------------------------|-0--0--0--0--0--1--0--0--0--0--0--1-|
  g1 - Dist


POS REFRAO
e|------------------------------------|--------------------10---------------|
b|------------------------------------|-----------------------10----10------|
g|-----7-----7-----8-------7-----5----|-----7-----7-----8--------10----10---|
d|------------------------------------|-------------------------------------|
a|--0--5--0--5--0--6----0--5--0--3----|-----5-----5-----6-------------------|
D|--0-----0-----0-------0-----0-------|--0-----0-----0----------------------|
  g2 - Dist                                               | + Flanger


BASE
e|-------------------------------------|------------------------------------|
b|-------------------------------------|------------------------------------|
g|--7-7-7-7-7-7-------7-7-7-7-7--------|--8-8-8-8--8-8-8-8-----------14--12-|
d|--x-x-x-x-x-x-0--0--x-x-x-x-x--------|-------------------0----------------|
a|--5-5-5-5-5-5-0--0--5-5-5-5-5--0-----|--6-6-6-6--6-6-6-6-0--6-6-6--12--10-|
D|--------------0--0-------------0-----|-------------------0----------------|
  g1 - Dist



e|-------------------------------------|------------------------------------|
b|-------------------------------------|-------------------------6-p-5------|
g|------------5-7----------------------|------------7-5-----------------5---|
d|----7------------7---------5-h-7-----|-----7-------------7--5-------------|
a|--5-----5-------------5--------------|--6-----6---------------------------|
D|-------------------------------------|------------------------------------|
  g2 - Drive c/ Tremolo


e|-------------------------------------|------------------------------------|
b|-------------------------------------|------------------------------------|
g|--7-7-7-7-7-7-------7-7-7-7-7--------|--8-8-8-8--8-8-8-8-----------14--12-|
d|--x-x-x-x-x-x-0--0--x-x-x-x-x--------|-------------------0----------------|
a|--5-5-5-5-5-5-0--0--5-5-5-5-5--0-----|--6-6-6-6--6-6-6-6-0--6-6-6--12--10-|
D|--------------0--0-------------0-----|-------------------0----------------|
  g1 - Dist



e|-------------------------------------|------------------------------------|
b|-------------------------------------|-------------------------6-p-5------|
g|------------5-7----------------------|------------7-5-----------------5---|
d|----7------------7---------5-h-7-----|-----7-------------7--5-------------|
a|--5-----5-------------5--------------|--6-----6---------------------------|
D|-------------------------------------|------------------------------------|
  g2 - Drive c/ Tremolo



e|-------------------------------------|------------------------------------|
b|-------------------------------------|------------------------------------|
g|--7-7-7-7-7-7-------7-7-7-7-7--------|--8-8-8--8-8-8----------------------|
d|--x-x-x-x-x-x-0--0--x-x-x-x-x--------|------------------------------------|
a|--5-5-5-5-5-5-0--0--5-5-5-5-5--0-----|--6-6-6--6-6-6----------------------|
D|--------------0--0-------------0-----|------------------------------------|
  g1 - Dist



e|-------------------------------------|------------------------------------|
b|-------------------------------------|------------------------------------|
g|------------5-7----------------------|-----------5-7----------------------|
d|----7------------7---------5-h-7-----|----7-------------------------------|
a|--5-----5-------------5--------------|--6-----6---------------------------|
D|-------------------------------------|------------------------------------|
  g2 - Drive c/ Tremolo                                 | + Flanger


PASSAGEM
e|-------------------------------------|-------------------------------------|
b|-------------------------------------|-------------------------------------|
g|-----7------7-----8--------7-----5---|-----7------7-----8--------7-----5---|
d|-----7-------------------------------|-----7-------------------------------|
a|--0--5---0--5--0--6-----0--5--0--3---|--0--5---0--5--0--6-----0--5--0--3---|
D|--0------0-----0--------0-----0------|--0------0-----0--------0-----0------|
  g1 - Dist (Para tudo, só fica a G1)


e|-------------------------------------|--10------------------10-------------|
b|-------------------------------------|-------10--------10-------10---------|
g|-------------------------------------|------------10-----------------10----|
d|-------------------------------------|-------------------------------------|
a|-------------------------------------|-------------------------------------|
D|-------------------------------------|-------------------------------------|
  g2 - Dist c Flanger


BASE2
e|-------------------------------------|-------------------------------------|
b|-------------------------------------|-------------------------------------|
g|-----7------7-----8--------7-----5---|-----7------7-----8--------7-----5---|
d|-----7-------------------------------|-----7-------------------------------|
a|--0--5---0--5--0--6-----0--5--0--3---|--0--5---0--5--0--6-----0--5--0--3---|
D|--0------0-----0--------0-----0------|--0------0-----0--------0-----0------|
  g1 + g2 - Dist



PRE REFRÃO
e|-------------------------------------|
b|-------------------------------------|
g|-------------------------------------|
d|-0-0-0--0--0-1----0-0-0--0--0--------|
a|-0-0-0--0--0-1----0-0-0--0--0--------|
D|-0-0-0--0--0-1----0-0-0--0--0--------|

REFRAO
e|-------------------------------------|------------------------------------|
b|-------------------------------------|------------------------------------|
g|-3-------3--3------3--------3---3----|------------------------------------|
d|-3-------3--3------3--------3---3----|------------------------------------|
a|-1-------1--1------1--------1---1----|-0--0--0--0--0--1--0--0--0--0--0--1-|
D|-------------------------------------|-0--0--0--0--0--1--0--0--0--0--0--1-|
  g2 - Dist



e|-------------------------------------|------------------------------------|
b|-------------------------------------|------------------------------------|
g|-3------3--3---3-/-5-/-3-/-5-/-7-7---|------------------------------------|
d|-------------------------------------|------------------------------------|
a|-1------1--1---1-/-3-/-1-/-3-/-5-5---|-0--0--0--0--0--1--0--0--0--0--0--1-|
D|-------------------------------------|-0--0--0--0--0--1--0--0--0--0--0--1-|
  g1 - Dist


e|-------------------------------------|
b|-------------------------------------|
g|-------------------------------------|
d|-0-0-0--0--0-1----0-0-0--0--0-1------|
a|-0-0-0--0--0-1----0-0-0--0--0-1------|
D|-0-0-0--0--0-1----0-0-0--0--0-1------|

FINALERA.. hehehe
e|-------------------------------|--------------------------------------|
b|-------------------------------|--------------------------------------|
g|-------------------------------|--------------------------------------|
d|--3-3-3-3-3-3-3-3-3-3-3-3-3-3--|-0-0-0--0--0-1----0-0-0--0--0---------|
a|--1-1-1-1-1-1-1-1-1-1-1-1-1-1--|-0-0-0--0--0-1----0-0-0--0--0---pausa-|
D|-------------------------------|-0-0-0--0--0-1----0-0-0--0--0---------|
 g1 + g2 - Dist

e|---------------------------------------|
b|---------------------------------------|
g|---------------------------------------|
d|-0-0-0--0--0-1----0-0-0--0--0----------|
a|-0-0-0--0--0-1----0-0-0--0--0----------|
D|-0-0-0--0--0-1----0-0-0--0--0--12\-----|
  g1 + g2 - Dist


e|---------------------------------------|
b|---------------------------------------|
g|---------------------------------------|
d|-0-0-0--0--0-1----0-0-0--0--0----------|
a|-0-0-0--0--0-1----0-0-0--0--0----------|
D|-0-0-0--0--0-1----0-0-0--0--0----------|
  g1 + g2 - Dist


Acordes:
D D# Bb
00:00 / 00:00
Outros vídeos desta música
Repetir
Outros vídeos desta música
570 exibições
    • ½ Tom
    • A
    • Bb
    • B
    • C
    • Db
    • D
    • Eb
    • E
    • F
    • F#
    • G
    • Ab
  • Adicionar à lista

Afinação da cifra

Afinador online

    0 comentários

    Ver todos os comentários

    Entre para o Cifra Club PRO

    Tenha acesso a benefícios exclusivos no App e no Site

    • Chega de anúncios

    • Mais recursos no app do Afinador

    • Atendimento Prioritário

    • Aumente seu limite de lista

    • Ajude a produzir mais conteúdo

    00:00 / 00:00

    Cifra Club Pro

    Aproveite o Cifra Club com benefícios exclusivos e sem anúncios
    Cifra Club Pro
    Aproveite o Cifra Club com benefícios exclusivos e sem anúncios
    OK