Cifra Club

Majesty Of Rock

Spinal Tap

Cifra: Principal (violão e guitarra)
tom: E

Intro:

E|-------------------------------------------------------|
B|-------------------------------------------------------|
G|-----1-2-4-2-1---2-1-----1--------------1-2-4-2-1---2--|
D|-2-4-----------4-----4-2---4-2-1----2-4-----------4----|
A|-------------------------------------------------------|       
E|-------------------------------------------------------|

Keep playing an E chord


Vers 1: E     D A E x 2

Bridge:  G    G A E   A   B

Chorus: E  A  F# B G# C# B A B    E...

SOLO:  

E|----------------------------------------------|
B|----------------------------------------------|
G|------7-----7-----7-----7--9------------------|  X 3 (listen to
D|------5--7--5--7--5--7--5--7---2-2-2----------|       hear the beat)
A|---------5-----5-----5---------2-2-2----------|       
E|-------------------------------0-0-0----------|


This Is The Whole Song!



Intro:

E|-------------------------------------------------------|
B|-------------------------------------------------------|
G|-----1-2-4-2-1---2-1-----1--------------1-2-4-2-1---2--|
D|-2-4-----------4-----4-2---4-2-1----2-4-----------4----|
A|-------------------------------------------------------|       
E|-------------------------------------------------------|

Keep playing an E chord


Vers : E     D A E x 2

Bridge:  G    G A E   A   B


There's a pulse in the new-born sun
A beat in the heat of the noon
There's a song as the day grows long
And a tempo in the tides of the moon
It's all around us and it's everywhere
And it's deeper than royal blue
And it feels so real you can feel the feeling


Chorus: E  A  F# B G# C# B A B    E...

And that's the majesty of rock
The fantasy of roll
The ticking of the clock
The wailing of the soul
The prisoner in the dock
The digger in the hole
We're in this together...and ever...

Vers : E     D A E x 2

Bridge:  G    G A E   A   B


In the shade of a jungle glade
Or the rush of the crushing street
On the plain, on the foamy main
You can never escape from the beat
It's in the mud and it's in your blood
And it's conquest is complete
And all that you can do is just surrender


Chorus: E  A  F# B G# C# B A B    E...

To the majesty of rock
The pageantry of roll
The crowing of the cock
The running of the foal
The shepherd with his flock
The miner with his coal
We're in this together...and ever...

SOLO:  

E|----------------------------------------------|
B|----------------------------------------------|
G|------7-----7-----7-----7--9------------------|  X 3 (listen to
D|------5--7--5--7--5--7--5--7---2-2-2----------|       hear the beat)
A|---------5-----5-----5---------2-2-2----------|       
E|-------------------------------0-0-0----------|






Vers : E     D A E x 2

Bridge:  G    G A E   A   B


When we die, do we hunt the sky?
Do we lurk in the murk of the seas?
What then? Are we born again?
Just to sit asking questions like these?
I know, for I told me so
And I'm sure each of you quite agrees
The more it stays the same, the less it changes

Chorus: E  A  F# B G# C# B A B    E...

And that's the majesty of rock
The mystery of roll
The darning of the sock
The scoring of the goal
The farmer takes a wife
The barber takes a pole
We're in this together...and ever...

Outro:

E|-------------------------------------------------------|
B|-------------------------------------------------------|
G|-----1-2-4-2-1---2-1-----1--------------1-2-4-2-1---2--|
D|-2-4-----------4-----4-2---4-2-1----2-4-----------4----|
A|-------------------------------------------------------|       
E |-------------------------------------------------------|


Composição de David St. Hubbins / Derek Smalls / Nigel Tufnel
247 exibições
    • ½ Tom
    • A
    • Bb
    • B
    • C
    • Db
    • D
    • Eb
    • E
    • F
    • F#
    • G
    • Ab
  • Adicionar à lista

    0 comentários

    Ver todos os comentários

    Conseguiu tocar?

    0 Tocaram 0 Ainda não

    Grave um vídeo tocando Majesty Of Rock e nos envie!

    00:00 / 00:00
    Outros vídeos desta música
    Repetir Qualidade Automático
    Outros vídeos desta música
    00:00 / 00:00
    Automático

    Cifra Club Pro

    Aproveite o Cifra Club com benefícios exclusivos e sem anúncios
    Cifra Club Pro
    Aproveite o Cifra Club com benefícios exclusivos e sem anúncios
    OK