Cifra Club

Elvis Was a Skinhead

The Ataris

Cifra: Principal (violão e guitarra)
Selo Cifra Club: esta cifra foi revisada para atender aos critérios oficiais da nossa Equipe de Qualidade.
tom: B
Intro:
e|------------------------------------------|
B|------------------------------------------|
G|--------99------6666--888-8-99-8-6--------|
D|--6666--99--99--6666--888-8-99-8-6--------|
A|--6666--77--99--4444--666-6-77-6-4--------|
E|--4444------77----------------------------|

e|------------------------------------------|
B|------------------------------------------|
G|--------X99-------6666--888-8-99-8-6------|
D|--6666--X99--X99--6666--888-8-99-8-6------|
A|--6666--X77--X99--4444--666-6-77-6-4------|
E|--4444-------X77--------------------------|

e|------------------------------------------|
B|------------------------------------------|
G|--------9999-----6666--8888-9-------------|
D|--6666--9999--9--6666--8888-9-(X2)--------|
A|--6666--7777--9--4444--6666-7-------------|
E|--4444--------7---------------------------|

Verso:
e|------------------------------------------|
B|------------------------------------------|
G|--------------99999999--------------------|
D|--6666--4444--99999999-(x2)---------------|
A|--6666--4444--77777777--------------------|
E|--4444--2222------------------------------|
"Elvis was a skinhead, he wore a greaseball wig"

Rerrão:
e|-------------------------------|
B|-------------------------------|
G|--4444-------------------------|
D|--4444--4444--6666--2222-(X4)--|
A|--2222--4444--6666--2222-------|
E|--------2222--4444--0000-------|
"On the day he died fat old woman cried"

Pós Refrão:
e|-------------------------------|
B|-------------------------------|
G|-------------------------------|
D|--6666--4444--22222222-(X2)----|
A|--6666--4444--22222222---------|
E|--4444--2222--00000000---------|

-Verso
-Refrão

Outro:
e|-------------------------------------------|
B|-------------------------------------------|
G|--------X99-------6666--888-8-99-8-6-------|
D|--6666--X99--X99--6666--888-8-99-8-6-(X2)--|
A|--6666--X77--X99--4444--666-6-77-6-4-------|
E|--4444-------X77---------------------------|

e|-------------------------------------------------|
B|-------------------------------------------------|
G|--------------999999-9-8-9-8---------------------|
D|--6666--4444--999999-9-8-9-8-(x2)--9-------------|
A|--6666--4444--777777-7-6-7-6-------9-------------|
E|--4444--2222-----------------------7-------------|
Outros vídeos desta música
    153 exibições
      • ½ Tom
      • A
      • Bb
      • B
      • C
      • Db
      • D
      • Eb
      • E
      • F
      • F#
      • G
      • Ab
    • Adicionar à lista

    Afinação da cifra

    Afinador online

      0 comentários

      Ver todos os comentários

      Entre para o Cifra Club PRO

      Tenha acesso a benefícios exclusivos no App e no Site

      • Chega de anúncios

      • Mais recursos no app do Afinador

      • Atendimento Prioritário

      • Aumente seu limite de lista

      • Ajude a produzir mais conteúdo

      Cifra Club Pro

      Aproveite o Cifra Club com benefícios exclusivos e sem anúncios
      Cifra Club Pro
      Aproveite o Cifra Club com benefícios exclusivos e sem anúncios
      OK