Cifra Club

San Dimas High School Football Rules

The Ataris

Cifra: Principal (violão e guitarra)
Tom: C
~ = Let ring
PM= Palm Mute

                                                        
Intro: x2
e-|-----------------------------------------------------------------------|
B-|-----------------------------------------------------------------------|
G-|--5-4-0----5-4-0---5-4-0-----------------------------------------------|
D-|--5-5-5----2-2-2---3-3-3----5-5-5-5-5-5-5-5----------------------------|
A-|--3-3-3---------------------5-5-5-5-5-5-5-5----------------------------|
E-|----------------------------3-3-3-3-3-3-3-3----------------------------|

Verse 1:
e-|-----------------------------------------------------------------------|
B-|-----------------------------------------------------------------------|
G-|----5-555555555555-----------------------------------------------------|
D-|----5-555555555555---2-22222222222222222222----3-33333333333333333333--|
A-|----3-333333333333---2-22222222222222222222----3-33333333333333333333--|
E-|---------------------0-00000000000000000000----1-11111111111111111111--|


"Last night I had a dream    that we went to Disneyland, went on all the
e-|-----------------------------------------------------------------------|
B-|-----------------------------------------------------------------------|
G-|-------------------------------5-55555555555555555555555555------------|
D-|-5-55555555555555555555555555--5-55555555555555555555555555--2-2222222-|
A-|-5-55555555555555555555555555--3-33333333333333333333333333--2-2222222-|
E-|-3-33333333333333333333333333--------------------------------0-0000000-|

rides, didn't have to wait in line.     I drove you to your house
e-|-----------------------------------------------------------------------|
B-|-----------------------------------------------------------------------|
G-|-----------------------------------------------------------------------|
D-|-222222222222222222222--3-33333333333333333333333333--55555555555------|
A-|-222222222222222222222--3-33333333333333333333333333--55555555555------|
E-|-000000000000000000000--1-11111111111111111111111111--33333333333------|

e-|-----------------------------------------------------------------------|
B-|-----------------------------------------------------------------------|
G-|-----------------------------------------------------------------------|
D-|-5555555555555555556-----7-7-7-7-7-7-7-7-7-7-7-7-3-3-3-3-3-3-3-3-3-3-3-|
A-|-5555555555555555556-----7-7-7-7-7-7-7-7-7-7-7-7-3-3-3-3-3-3-3-3-3-3-3-|
E-|-3333333333333333334-----5-5-5-5-5-5-5-5-5-5-5-5-1-1-1-1-1-1-1-1-1-1-1-|

as I held you in my arms. We hung out at the rainbow where we drank
e-|-----------------------------------------------------------------------|
B-|-----------------------------------------------------------------------|
G-|-----------------5-5-5-5-5-5-5-5-5-5-5---------------------------------|
D-|-3-3-3-3-3-3-3-3-5-5-5-5-5-5-5-5-5-5-5-5-5-5-5-5-5-5-5-5-5-5-5-5-7-7-7-|
A-|-3-3-3-3-3-3-3-3-3-3-3-3-3-3-3-3-3-3-3-5-5-5-5-5-5-5-5-5-5-5-5-5-7-7-5-|
E-|-1-1-1-1-1-1-1-1-----------------------3-3-3-3-3-3-3-3-3-3-3-3-3-5-5-5-|

til' half past two. Nothing could go wrong anytime that I'm with you.
e-|-----------------------------------------------------------------------|
B-|-----------------------------------------------------------------------|
G-|---------------------------------------------------------5-5-5-5-5-5---|
D-|-7-7-7-7-7-7-7-7-7-3-3-3-3-3-3-3-3-3-3-3-3-3-3-3-3-3-3-3-5-5-5-5-5-5---|
A-|-7-7-7-7-7-7-7-7-7-3-3-3-3-3-3-3-3-3-3-3-3-3-3-3-3-3-3-3-3-3-3-3-3-3---|
E-|-5-5-5-5-5-5-5-5-5-1-1-1-1-1-1-1-1-1-1-1-1-1-1-1-1-1-1-1---------------|

Like crashing a hotel room or leading up to that first kiss.
e-|-----------------------------------------------------------------------|
B-|-----------------------------------------------------------------------|
G-|-5-5-5-5-5-5-5-5-5-5---------------------------------------------------|
D-|-5-5-5-5-5-5-5-5-5-5-5-5-5-5-5-5-5-5-5-5-5-5-5-5-5-5-5-5---------------|
A-|-3-3-3-3-3-3-3-3-3-3-5-5-5-5-5-5-5-5-5-5-5-5-5-5-5-5-5-5---------------|
E-|---------------------3-3-3-3-3-3-3-3-3-3-3-3-3-3-3-3-3-3---------------|

Or searching for a high school that you know doesn't exist...

Chorus:
e-|-----------------------------------------------------------------------|
B-|-----------------------------------------------------------------------|
G-|---------------------------------------5-5-5---------------------------|
D-|-3-333333333333333-5-5555555555555555--5-5-5--5-5-5-5-5-5-7-7-7-7-7-7--|
A-|-3-333333333333333-5-5555555555555555--3-3-3--5-5-5-5-5-5-7-7-7-7-7-7--|
E-|-1-111111111111111-3-3333333333333333---------3-3-3-3-3-3-5-5-5-5-5-5--|

These are the things that make me free. I feel like I'm stuck in
e-|-----------------------------------------------------------------------|
B-|-----------------------------------------------------------------------|
G-|-----------------------------------------------------------------------|
D-|-5-5-5-5-5-3-3-3-3-3-3-3-3-3-3-5~~~~-----------------------------------|
A-|-5-5-5-5-5-3-3-3-3-3-3-3-3-3-3-5~~~~-----------------------------------|
E-|-3-3-3-3-3-1-1-1-1-1-1-1-1-1-1-3~~~~-----------------------------------|

"stand by me". This night was too good to be true.

Intro 2x

Verse 2:
e-|-----------------------------------------------------------------------|
B-|-----------------------------------------------------------------------|
G-|----5-55555555555------------------------------------------------------|
D-|----5-55555555555---2-2222222222222222222222-----3-3333333333333333333-|
A-|----3-33333333333---2-2222222222222222222222-----3-3333333333333333333-|
E-|--------------------0-0000000000000000000000-----1-1111111111111111111-|

Today I woke up alone wishing you were here with me, I wanted us to be
e-|-----------------------------------------------------------------------|
B-|-----------------------------------------------------------------------|
G-|------------------------------------5-555555555555555555555------------|
D-|-5-555555555555555555555555555555---5-555555555555555555555-2-2222222--|
A-|-5-555555555555555555555555555555---3-333333333333333333333-2-2222222--|
E-|-3-333333333333333333333333333333---------------------------0-0000000--|

something that we'd probably never be. Today you called me up
e-|-----------------------------------------------------------------------|
B-|-----------------------------------------------------------------------|
G-|-----------------------------------------------------------------------|
D-|-22222222222222222222222222222-3-333333333333333333333-555555555555555-|
A-|-22222222222222222222222222222-3-333333333333333333333-555555555555555-|
E-|-00000000000000000000000000000-1-111111111111111111111-333333333333333-|

and said you'd see me at our show, but now I'm stuck debating whether
e-|-----------------------------------------------------------------------|
B-|-----------------------------------------------------------------------|
G-|-----------------------------------------------------------------------|
D-|-5-5-5-5-5-6--7-7------------------------------------------------------|
A-|-5-5-5-5-5-6--7-7------------------------------------------------------|
E-|-3-3-3-3-3-4--5-5------------------------------------------------------|



Whitney, don't you understand that what I say is true?
I just want you to know I have a major crush on you.
I'd drive you to Las Vegas and do the things you wanna do
I'd even have Wayne Newton dedicate a song to you.
I only wish that this could be
Just dump your boyfriend and go out with me
I swear I'd treat you like a queen.


 M A R K < 1 8 2 >
exibições 8.146
Acordes para:
    Composição: Kris Roe / The Ataris Colaboração e revisão:
    • Victor Amaral

    0 comentários

    mostrar mais comentários

    Conseguiu tocar?

    0 tocaram 0 ainda não

    Grave um vídeo tocando San Dimas High School Football Rules e mande pra gente!

    00:00 / 00:00
    outros vídeos desta música
    repetir qualidade Automático
    Outros vídeos desta música
    00:00 / 00:00
    Automático
    OK