Cifra Club

Aprenda

The hero dies in this one

The Ataris

Cifra: Principal (violão e guitarra)
Tom: D
the hero dies in this one

D|--------------------9-------------|
A|--7----7/9------------------------|
d|----0-------0-0--------0-0-0-0----|
G|---7-7-----6-6--6h7---7-7-6-6-6h7-|
B|----------------------------------|
e|----------------------------------|

D|---------9|
A|-7---9---9|
d|-9---11---|
G|----------|
B|----------|
e|----------|
palm mute

As I leave here today
Apartment 108
I'll always keep you in my heart.

Anderson is cold tonight
The leaves are scattered on the ground
I miss the seasons and the comfort of your smile.

D|--7---5---0------|
A|--7---5---0------|
d|-----------------|
G|-----------------|
B|-----------------|
e|-----------------|

Sometimes this all feels like a dream
I'm waiting for someone just to wake me up from this life

D|---------9|
A|-7---9---9|
d|-9---11---|
G|----------|
B|----------|
e|----------|
palm mute

As I look out at these fairgrounds
I remember when our family split apart

I don't think I ever told you
But I know you always did your best
And the hard times well, they only make us stronger.

D|--7---5---0------|
A|--7---5---0------|
d|-----------------|
G|-----------------|
B|-----------------|
e|-----------------|

As I sit here all alone
I wonder how I'm supposed to carry on
When you're gone

D|-2--5--0--8--9--5--0---2--5--0--8--9--5-|
A|-2--5--0--8--9--5--0---2--5--0--8--9--5-|
d|----------------------------------------|
G|----------------------------------------|
B|----------------------------------------|
e|----------------------------------------|

I'll never be the same without you
I love you more than you will ever know.
And maybe now you finally know
Sometimes we're helpless and alone
But you can't let it keep you weighted down.
You must go on.

D|---------------------|
A|--7----7/9-----------|
d|----0-------0-0------|
G|---7-7-----6-6--6h7--|
B|---------------------|
e|---------------------|

D|---------9|
A|-7---9---9|
d|-9---11---|
G|----------|
B|----------|
e|----------|
palm mute

Do you ever feel like crying?
Do you ever feel like giving up?

I raise my hands up towards the sky
I say this prayer for you tonight
Because nothing is impossible.

D|--7---5---0------|
A|--7---5---0------|
d|-----------------|
G|-----------------|
B|-----------------|
e|-----------------|

As I sit here all alone
I wonder how I'm supposed to carry on
When you're gone

D|-2--5--0--8--9--5--0---2--5--0--8--9--5-|
A|-2--5--0--8--9--5--0---2--5--0--8--9--5-|
d|----------------------------------------|
G|----------------------------------------|
B|----------------------------------------|
e|----------------------------------------|

I'll never be the same without you
I love you more than you will ever know.
And maybe now you finally know
Sometimes we're helpless and alone
But you can't let it keep you weighted down.
You must go on.

D|--------------------9-------------|
A|--7----7/9------------------------|
d|----0-------0-0--------0-0-0-0----|
G|---7-7-----6-6--6h7---7-7-6-6-6h7-|
B|----------------------------------|
e|----------------------------------|

D|-0--9--2--4--5-|
A|-0--9--2--4--5-|
d|---------------|
G|---------------|
B|---------------|
e|---------------|

D|----|
A|----|
d|----|
G|-3--|
B|-3--|
e|-3--|
harmônica
Composição de Chris Knapp / John Collura / Kris Roe / Mike Davenport
Colaboração e revisão:
  • Rafael Martins
1.974 exibições
    • ½ Tom
    • A
    • Bb
    • B
    • C
    • Db
    • D
    • Eb
    • E
    • F
    • F#
    • G
    • Ab
  • Adicionar à lista

    0 comentários

    Mostrar mais comentários

    Conseguiu tocar?

    0 Tocaram 0 Ainda não

    Grave um vídeo tocando The hero dies in this one e mande pra gente!

    00:00 / 00:00
    outros vídeos desta música
    repetir qualidade Automático
    Outros vídeos desta música
    00:00 / 00:00
    Automático

    Cifra Club Pro

    Aproveite o Cifra Club com benefícios exclusivos e sem anúncios
    7 dias grátis
    Cifra Club Pro
    Aproveite o Cifra Club com benefícios exclusivos e sem anúncios
    7 dias grátis
    OK