Cifra Club

Your Boyfriend Sucks

The Ataris

Cifra: Principal (violão e guitarra)
Selo Cifra Club: esta cifra foi revisada para atender aos critérios oficiais da nossa Equipe de Qualidade.
tom: G#m
Intro:(Acoustic)
E|--------------------------------------------------------------------|
B|--------------------------------------------------------------------|
G|--------------------6--------------4--------------------------------|
D|2-------------------6--------------4---------------4---6-----7------|
A|2-------------------4--------------2---------------4---6-----7------|
E|0--------------------------------------------------2---4-----5------|
Your better off without him, don't call him, he's breaking your heart
Verse:
E|--------------------------------------------------------------------|
B|--------------------------------------------------------------------|
G|-------------------------6-----------------4------------------------|
D|2------------------------6-----------------4------------------------|
A|2------------------------4-----------------2------------------------|
E|0-------------------------------------------------------------------|
He's hanging with your bestfriend and your waiting there
E|--------------------------------------------------------------------|
B|--------------------------------------------------------------------|
G|--------------------------------------------------------------------|
D|-------4--6--7------------------------------------------------------|
A|-------4--6--7------------------------------------------------------|
E|-------2--4--5------------------------------------------------------|
It's tearing you apart.
E|--------------------------------------------------------------------|
B|--------------------------------------------------------------------|
G|------------------6--------------4----------------------------------|
D|2-----------------6--------------4----------------------------------|
A|2-----------------4--------------2----------------------------------|
E|0-------------------------------------------------------------------|
He lied to you a thousand times, when I was there,
E|--------------------------------------------------------------------|
B|--------------------------------------------------------------------|
G|--------------------------------------------------------------------|
D|----4--6--7---------------------------------------------------------|
A|----4--6--7---------------------------------------------------------|
E|----2--4--5---------------------------------------------------------|
He kept you waiting.
Chorus: 
E|--------------------------------------------------------------------|
B|--------------------------------------------------------------------|
G|--------------------------------------------------------------------|
D|4-------------------6---------------------7-------------------------|
A|4-------------------6---------------------7-------------------------|
E|2-------------------4---------------------5-------------------------|
And I'm still here, waiting there,        to catch you if you fall.
E|--------------------------------------------------------------------|
B|--------------------------------------------------------------------|
G|--------------------------------4----8~-----------------------------|
D|4------------6------------------4----8~-----------------------------|
A|4------------6------------------2----6~-----------------------------|
E|2------------4------------------------------------------------------|
I don't know why I care so much,  when I shouldn't care at all.
Solo: 
E|--------------------------------------------------------------------|
B|--------------------------------------------------------------------|
G|----------------6-6-6-6-6-6-6-6-4-4-4-4-4-4-4-4---------------------|
D|2-2-2-2-2-2-2-2-6-6-6-6-6-6-6-6-4-4-4-4-4-4-4-4-4-6-7--x2-----------|
A|2-2-2-2-2-2-2-2-4-4-4-4-4-4-4-4-2-2-2-2-2-2-2-2-4-6-7---------------|
E|0-0-0-0-0-0-0-0---------------------------------2-4-5---------------|

E|--------------------------------------------------------------------|
B|--------------------------------------------------------------------|
G|-13-13-13-13-13-13-13-13-9-8-8-8-9-8-8-8-8-8-8-11-13-9--------------|
D|--x--x--x--x--x--x--x--x-x-x-x-x-x-x-x-x-x-x-x--x--x-x--------------|
A|-11-11-11-11-11-11-11-11-7-6-6-6-7-6-6-6-6-6-6--9-11-7--------------|
E|--------------------------------------------------------------------|
Verse 2:
E|--------------------------------------------------------------------|
B|--------------------------------------------------------------------|
G|-------------------------6---------4--------------------------------|
D|2------------------------6---------4-----------------4--6--7--------|
A|2------------------------4---------2-----------------4--6--7--------|
E|0----------------------------------------------------2--4--5--------|
Finally got the nerve to tell you, how much you mean to me.
E|--------------------------------------------------------------------|
B|--------------------------------------------------------------------|
G|-----------------------6---------------4----------------------------|
D|2----------------------6---------------4----------------------------|
A|2----------------------4---------------2----------------------------|
E|0-------------------------------------------------------------------|
You said that I was your bestfriend, a real sweet guy,
E|--------------------------------------------------------------------|
B|--------------------------------------------------------------------|
G|--------------------------------------------------------------------|
D|------------4--6--7-------------------------------------------------|
A|------------4--6--7-------------------------------------------------|
E|------------2--4--5-------------------------------------------------|
But that's all I'd ever be.
Outros vídeos desta música
    10 exibições
      • ½ Tom
      • Am
      • Bbm
      • Bm
      • Cm
      • C#m
      • Dm
      • Ebm
      • Em
      • Fm
      • F#m
      • Gm
      • G#m
    • Adicionar à lista

    Afinação da cifra

    Afinador online

      0 comentários

      Ver todos os comentários

      Entre para o Cifra Club PRO

      Tenha acesso a benefícios exclusivos no App e no Site

      • Chega de anúncios

      • Mais recursos no app do Afinador

      • Atendimento Prioritário

      • Aumente seu limite de lista

      • Ajude a produzir mais conteúdo

      Cifra Club Pro

      Aproveite o Cifra Club com benefícios exclusivos e sem anúncios
      Cifra Club Pro
      Aproveite o Cifra Club com benefícios exclusivos e sem anúncios
      OK