Cifra Club

Blue

The Birthday Massacre

Cifra: Principal (violão e guitarra)
Selo Cifra Club: esta cifra foi revisada para atender aos critérios oficiais da nossa Equipe de Qualidade.
tom: E
intro:
E|---------------------------------------------------------------|
B|---------------------------------------------------------------|
G|---------------------------------------------------------------|
D|--22-22222-32222-22222--323-55-55555-32355-55555---------------|
A|--22-22222-12122-22222--121-55-55555-12155-55555---------------|
E|--00-00000--0-00-00000---0--33-33333--0-33-33333---------------| X2
pm.. ......   .. ......     ........    ........

1st time end with:

E|----------|
B|----------|
G|----------|
D|--323-----|
A|--121-----|
E|---0------|

                          ^
basically the whole song--1


then it goes:

E|-----------------| -------------------------|
B|-----------------| -------------------------|
G|-----------------| -------------------------|
-222222225222323-       55-55555-32355-55555-323-|
-222222225222121-       55-55555-12155-55555-121-|
E|-000000003000-0--| {2X)   33-33333--0-33-33333--0--|(2X)
pm....... ...           .. .....    .. .....
  

E|------------------------------------------------------------------|
B|------------------------------------------------------------------|
G|------------------------------------------------------------------|
D|--22-22222-32222-22222--323-55-55555-32355-55555-323--------------|
A|--22-22222-12122-22222--121-55-55555-12155-55555-121--------------|
E|--00-00000--0-00-00000---0--33-33333--0-33-33333--0---------------| (4X)
pm.. ......   .. ......     ........    ........

end with:

E|----------|
B|----------|
G|----------|
D|--323-----|
A|--121-----|
E|---0------|
Outros vídeos desta música
    30 exibições
      • ½ Tom
      • A
      • Bb
      • B
      • C
      • Db
      • D
      • Eb
      • E
      • F
      • F#
      • G
      • Ab
    • Adicionar à lista

    Afinação da cifra

    Afinador online

      0 comentários

      Ver todos os comentários

      Entre para o Cifra Club PRO

      Tenha acesso a benefícios exclusivos no App e no Site

      • Chega de anúncios

      • Badges exclusivas

      • Mais recursos no app do Afinador

      • Atendimento Prioritário

      • Aumente seu limite de lista

      • Ajude a produzir mais conteúdo

      Cifra Club Pro

      Aproveite o Cifra Club com benefícios exclusivos e sem anúncios
      Cifra Club Pro
      Aproveite o Cifra Club com benefícios exclusivos e sem anúncios
      OK