Cifra Club

Dangerous Type

The Cars

Cifra: Principal (violão e guitarra)
Selo Cifra Club: esta cifra foi revisada para atender aos critérios oficiais da nossa Equipe de Qualidade.
tom: Dm
E|E|-------------------------------------------------------------------------------||
                            Dangerous Type - The Cars
E|E|-------------------------------------------------------------------------------||
Tabbed by: Robyglesias

Tuning:    Standard 

*******************************************************************************
| /   slide up                                     | x   Mute note
| \   slide down                                   | b   Bend
| h   hammer-on                                    | pb  Pre-bend
| p   pull-off                                     | br  Bend release
| ~   vibrato                                      | pbr Pre-bend release
| +   harmonic                                     | brb Bend release bend
*******************************************************************************


rythm 1 play 2xs
E|-----0----0----0----0----------------0----0----0----0------------------------|
B|-----0----0----0----0----------------0----0----0----0------------------------|
G|-----------------------------------------------------------------------------|
D|-----------------------------------------------------------------------------|
A|----7----7----7----7---------7------7----7----7----7-----10-10-9-7-----------|
E|--0-0--0-0--0-0--0-0-----7-9------0-0--0-0--0-0--0-0-------------------------|


rythm 2                              chorus rythm 3
E|-----0----0----0----0-------------|--------0--------0------0-------------0---|
B|-----5----5----5----5-------------|--------0-1------0-1----1-0--------3---3--|
G|-----4----4----4----4-------------|-------2--------2------0----0-----2--2--2-|
D|-----2----2----2----2-------2-----|---2--2-------3-------0----0-----0--------|
A|-------------------------2-4------|---0----------3-------x-------------------|
E|--0-0--0-0--0-0--0-0--------------|-------------(1)------3-------------------|


 Keybord lick 1 with Rythm 1  2xs
E|-----------------------------------------------------------------------------|
B|--15p12-14p12-10h12~--15p12-14-12-12-----15p12-14p12-10h-12~---15p12---------|
G|-13------------------13----------13-----13--------------------13----12-12-11-|
D|14------------------14----------------14--------------------14-------------14|
A|-----------------------------------------------------------------------------|
E|-----------------------------------------------------------------------------|


rythm 4   outro                           
E|---0------0-----0----------2p3--|-----------------0------0-------------------|
B|---0-1----0-1---1-0------3----3-|--------0-1------0-1----1-0-----------------|
G|--2------2-----0----0---2-2-----|-------2--------2------0----0----5---5------|
D|-2------3-----0----0---0--------|---2--2-------3-------0----0----5---5-------|
A|-0------3-----x-----------------|---0----------3-------x--------3---2--------|
E|--------------3-----------------|-------------(1)------3---------------------|


rythm 5 outro lead guritar
E|-----------------------------------------------------------------------------|
B|-----------------------------------------------------------------------------|
G|-------------------------------------7--7------------------------------------|
D|-2----------------------------------7--7-----2-------------------------------|
A|-0-0-2b3-0h2--0-2b3-0h2--0-2b3-0h2-5--5------0-0-2b3-0h2--0-2b3-0h2-0-2b3-0h2|
E|------------1~----------3~-----------------------------1~----------3~--------|

E|----------------|
B|---1----1-------|
G|--0----0--------|
D|----------------|
A|-3----2---3p2---|
E|----------------|
 
solo
E|----------------------------------------------------------------------------|
B|--15------------------------------------------------------------------------|
G|--14br(16(16)(15)(15)14-14--12b(13)-----------------------------------------|
D|------------------------------------14-14-12~----------12-12-12h14~---------|
A|-------------------------------------------------12h14----------------------|
E|----------------------------------------------------------------------------|

E|----------------------------------------------------------------------------|
B|----------------------------------------------------------------------------|
G|----------------------------12----------------------------------------------|
D|12h13-14~-12h13-14~-12h13-14--14p12-14~-------------------------------------|
A|-----------------------------------------------------------------10---------|
E|--------------------------------------10h11-12~-10h11-12~-10h11-12-12p10-12~|

E|----------------------------------------------------------------------------|
B|-------------------------------------------------15(| let-note-ring)----------|
G|--------------------------12--12--14br(15)p12--14b-14b(16)-----------12\9---|
D|------------12-12-12h14~----14---------------------------------------12\9---|
A|----12h13h14----------------------------------------------------------------|
E|-14-------------------------------------------------------------------------|
Outros vídeos desta música
    19 exibições
      • ½ Tom
      • Am
      • Bbm
      • Bm
      • Cm
      • C#m
      • Dm
      • Ebm
      • Em
      • Fm
      • F#m
      • Gm
      • G#m
    • Adicionar à lista

    Afinação da cifra

    Afinador online

      0 comentários

      Ver todos os comentários

      Entre para o Cifra Club PRO

      Tenha acesso a benefícios exclusivos no App e no Site

      • Chega de anúncios

      • Badges exclusivas

      • Mais recursos no app do Afinador

      • Atendimento Prioritário

      • Aumente seu limite de lista

      • Ajude a produzir mais conteúdo

      Cifra Club Pro

      Aproveite o Cifra Club com benefícios exclusivos e sem anúncios
      Cifra Club Pro
      Aproveite o Cifra Club com benefícios exclusivos e sem anúncios
      Ops (: Contenido disponible sólo en portugués.
      OK