Cifra Club

Dimming Of The Day

The Corrs

Cifra: Principal (violão e guitarra)
Selo Cifra Club: esta cifra foi revisada para atender aos critérios oficiais da nossa Equipe de Qualidade.
tom: G
Album:  Home

Tabbed by: Boyd (*)

It's my first tab and I'm not completely satisfied with it. 
Especially the chorusses and the second verse were a bit difficult to
figure out. 
Mail me at * for comments.

           E A D G B e
Cadd9     [0 3 2 0 3 0]
D         [x x 0 2 3 2]
Dsus2     [x x 0 2 3 0]
D?        [x 5 4 0 3 0]
Am7       [x 0 2 0 1 0]
G         [3 2 0 0 3 3]


||-1-x-x-x-2-x-x-x-3-x-x-x-4-x-x-x-|-1-x-x-x-2-x-x-x-3-x-x-x-4-x-x-x-|

-----------
Intro:
-----------

   Cadd9           G       D         G
e|---------0-----------------------|---------------------------------|
B|-3---------3---3-----------------|-----------3---------------------|
G|-----0---------------0---2-----0-|---------0-----0-----------------|
D|-2-----------------------0-------|-----0---------------------------|
A|-3---------------2---------------|---------------------------------|
E|---------------------------------|-3---------------3---------------|
                                                            This old 
-----------
Verse 1:
-----------

   G                                 Dsus2                   G
e|---------------------------------|---------0-----------------------|
B|---------------3-----------3-----|-----------3-------------3-------|
G|---------0---------------0-----0-|-----2---------2---------0---0---|
D|-----0---------------0-----------|-0---------------0---------------|
A|---------------------------------|-------------------------2-------|
E|-3---------------3---------------|---------------------------------|
  house is falling down around       my ears                 I am 

   Cadd9           G                 D?
e|---------0-----------------------|---------------------------------|
B|-------------------------3-------|---------3---------------3-------|
G|---------------------------------|-----------0---------------0-----|
D|-----2---------------0-----------|-----4---------4-----4---------0-|
A|-3---------------2---------------|-5---------------5---------------|
E|---------------------------------|---------------------------------|
   drowning in   a river     of      my tears                    When 

   G                                 D                       G
e|---------------------------------|---------0h2-------------3-------|
B|---------3---------------3-------|-------------3-----------3-------|
G|-----------0---------0---------0-|-----2---------2-------------0---|
D|-----0---------------------------|-0---------------0-------0-------|
A|---------------0-2---------------|-------------------------2-------|
E|-3-------------------------------|---------------------------------|
   all  my will is gone, you hold me sway                    And I 

   Cadd9           G       D         G
e|---------------------------------|---------------------------------|
B|-----------------------------3---|---------------0-------------3---|
G|---------0-----------------2-----|---------0h2---------------0-----|
D|-----2---------------0---0-------|-----0---------------0-----------|
A|-3-------------------------------|-------------------------2-------|
E|-----------------3---------------|-3---------------3---------------|
   need you at the dimming    of the day                         You 

-----------
Chorus 1:
-----------

   D                                 A
e|---------------------------------|---------------------------------|
B|-------------------------3-------|---------2p0-------------2-------|
G|---------2-----------2-----------|---------2---------------2-------|
D|-0---------------0h4-------------|-----2---------------2-----------|
A|---------------------------------|-0---------------0---------------|
E|---------------------------------|---------------------------------|
   pulled me like the moon pulls on the tide                     You 

   D                                 A               D       G
e|---------------------------------|---------------------------------|
B|-------------------------3-------|-------------0-2-3-------0-------|
G|---------2-----------2-------2---|---------2-----------2-------0---|
D|-0---------------4---------------|-----2-----------0---------------|
A|---------------------------------|-0-------------------------------|
E|---------------------------------|-------------------------3-------|
   know just where I keep my better side

                                   -----------
                                   Verse 1:
                                   -----------

   Cadd9                             G
e|---------3-----------------------|---------------------------------|
B|-----------3---------------------|---------3---------------0-3-0---|
G|---------------0-----------------|---------0-----0---------0-------|
D|-----2---------------------------|---------0-----------0-----------|
A|-3---------------3---------------|---------------------------------|
E|---------------------------------|-3---------------3---------------|
                                What days have come, to keep us far apart

   D                       G         Cadd9           G
e|---------------0---------3-------|-3-------------------------------|
B|---------3---------------3-------|-3-----------------------3-------|
G|-----2---2-----------2-------0---|---------0---------------2-0---0-|
D|-0---------------0---------------|-----2---------------0-----------|
A|-------------------------2-------|-3-------------------------------|
E|---------------------------------|-----------------3---------------|
                           A         broken promise or a     broken heart

   D                                 G           Am7 G
e|---------------------------------|-------------------------3-------|
B|---------------------------------|-0-----------1---3-------3-------|
G|---------2-0-----------------2---|-------0-----0---0-------0-------|
D|-0-----------4-0-0---------0-----|-0-----------2---0-------0-------|
A|---------------------------------|-------------0---2-------2-------|
E|-------------------------2-------|-3-----------------------3-------|
                                                            Apr.
                                 Now all the bonnie birds have wheeled away
   
   Dsus2                   G         Cadd9           G       D
e|---------------0-----------------|---------------------------------|
B|---------3---------------0---3---|-----------------0---------------|
G|-------2-------------------0-----|---------0-------0---0-------2---|
D|-0---------------0-------0-------|-----2-------------0-----0-------|
A|-------------------------2-------|-3---------------2---------------|
E|---------------------------------|---------------------------------|
                           And I     need you at the dimming of the day



                                   -----------
                                   Chorus 2:
                                   -----------
   G       G Am7 G                   D
e|---------------------------------|---------------------------------|
B|---------0h1---0-------------3---|---------3---------------3-------|
G|---------0-----0-----------0-----|-------2-------2-----2-----2-----|
D|---------0h2---0-----0-----------|-0---------------0-4-----------0-|
A|-------------------------2-------|---------------------------------|
E|-3---------------3---------------|---------------------------------|
                                     Come the night you're only what I 

   A                                 D
e|---------------------------------|---------------------------------|
B|---------2p0-------------2-------|-------------------------3-------|
G|---------2---------------2-------|---------2-----------2-------2---|
D|-----2---------------2-----------|-0---------------4---------------|
A|-0---------------0---------------|---------------------------------|
E|---------------------------------|---------------------------------|
   want                              Come the night you could be my confidant

   A               D       G         Cadd9
e|---------------------------------|---------3-----------------------|
B|-----2-------0-2-3-------0-------|-----------3---------------------|
G|-----2---2-----------2-------0---|---------------0-----------------|
D|-----2-----------0---------------|-----2---------------------------|
A|-0-------------------------------|-3---------------3---------------|
E|-------------------------3-------|---------------------------------|

-----------
Verse 2:
-----------

   G                                 D?
e|---------------3---------5/7---5-|---------------0-----------------|
B|---------3---------------0-------|---------3---------------3-------|
G|---------0---------------0-------|-----------0---------------------|
D|-----0---------------0-----------|-----4---------------4-----------|
A|---------------------------------|-5---------------5---------------|
E|-3---------------3---------------|---------------------------------|
 I see you on the street, in company

   Cadd9           G       Cadd9     D
e|---------3-----------------------|---------2p0---------------------|
B|---------------------------------|-------------3-------------------|
G|-----------------------0-----0---|---------------2-------------2---|
D|-----2---------------0-----------|-0-----0---------0---------0-----|
A|-3-----------------2-----3-------|---------------------------------|
E|-----------------3---------------|-------------------------2-------|
Why don't you come and ease your mind with me                    I am

   G           Am7 G                 D                       G
e|-------------------------3-------|---------0h2-------------3-------|
B|-0-------0---1---3-------3-------|-------------3---------------3---|
G|-------0-----0---0-------------0-|-------2-------2-----------0-----|
D|-0-----------2---0-----------0---|-0---------------0---------------|
A|-------------0---2---------------|-------------------------2-------|
E|-3-------------------------3-----|---------------------------------|
 living for the night, we steal away                         And I 

   Cadd9           G       D         G         Am7 G 
e|-0-------------------------------|---------------------------------|
B|-3-------3-----3---------------0-|---------0h1---0-----------------|
G|-----0-------------------3-------|---------0-----0---------0-------|
D|-2-------------------0---0-------|---------0h2---0-----0-----------|
A|-3-------------------------------|-----------------------------2---|
E|-----------------3---------------|-3---------------3---------------|
   need you at the dimming of the day                        Yes I 

-----------
Outro:
-----------
slowdown

   Cadd9           G       D         G       Am7   D G
e|-------0-------------------------|---------------------------------|
B|-----3---------------3-----------|--(0)--0-1p0-1/3-----------------|
G|---0---------------0---------2---|-----0---------------0-----------|
D|-------------------------0-------|---0-----2p0-2/4---0-------------|
A|-3---------------2---------------|---------------------------------|
E|---------------------------------|-3---------------3---------------|
   need you at the dimming of the day
Outros vídeos desta música
    1.323 exibições
      • ½ Tom
      • A
      • Bb
      • B
      • C
      • Db
      • D
      • Eb
      • E
      • F
      • F#
      • G
      • Ab
    • Adicionar à lista

    Afinação da cifra

    Afinador online

      0 comentários

      Ver todos os comentários

      Entre para o Cifra Club PRO

      Tenha acesso a benefícios exclusivos no App e no Site

      • Chega de anúncios

      • Mais recursos no app do Afinador

      • Atendimento Prioritário

      • Aumente seu limite de lista

      • Ajude a produzir mais conteúdo

      Cifra Club Pro

      Aproveite o Cifra Club com benefícios exclusivos e sem anúncios
      Cifra Club Pro
      Aproveite o Cifra Club com benefícios exclusivos e sem anúncios
      OK