Cifra Club

Boys Don't Cry

The Cure

Tab de baixo: Principal
Selo Cifra Club: esta cifra foi revisada para atender aos critérios oficiais da nossa Equipe de Qualidade.
tom: Afinação:
[Introdução]

G|----------------------------------------------|
D|----------------------------------------------|
A|--0--------2--------4--------5----5--4--14----|
E|----------------------------------------------|

G|----------------------------------------------|
D|----------------------------------------------|
A|--12-----12--12----12-14-14--14--14-12-14-----|
E|----------------14----------------------------|

G|----------------------------------------------|
D|----------------------------------------------|
A|--16-----16--16-14-16-17-----17-17--16--14----|
E|----------------------------------------------|

G|----------------------------------------------|
D|----------------------------------------------|
A|-12-12-12-12--12----12-14-14-14-14-14-14-12-14|
E|-----------------14---------------------------|

G|----------------------------------------------|
D|----------------------------------------------|
A|--16-----16--16-14-16-17-----17-17-17--16--14-|
E|----------------------------------------------|

G|----------------------------------------------|
D|----------------------------------------------|
A|--12-----12--12----12-14-14--14--14-12-14-----|
E|----------------14----------------------------|

G|----------------------------------------------|
D|---------------------------------------14--16-|
A|--16-16-16-16--16-14-16-17---17-17-17---------|
E|----------------------------------------------|

[Primeira Parte]

G|----------------------------------------------|
D|----------------------------------------------|
A|--0---------------2------2--2-0-2-------------|
E|---------5--5-0-5-----------------------------|

G|----------------------------------------------|
D|----------------------------------------------|
A|--4------4--4-2-4-5------5---5-4/5-2----------|
E|----------------------------------------------|

G|----------------------------------------------|
D|----------------------------------------------|
A|------------------2------2--2-0-2-------------|
E|--5------5--5-0-5-----------------------------|

G|----------------------------------------------|
D|----------------------------------------------|
A|--4------4--4-2-4-5------5--5-7-9-------------|
E|----------------------------------------------|

[Pré-Refrão]

G|------------------------------4---------------|
D|----------------------------------------------|
A|--4------4--4-4-4-2------2--2---2-------------|
E|----------------------------------------------|

G|--------------------------------4-------------|
D|----------------------------------------------|
A|--4------4-4--4--3--2------2--2---2-----------|
E|----------------------------------------------|

G|----------------------------------------------|
D|----------------------------------------------|
A|--4------4--4--4-5-4--------------------------|
E|----------------------5--2/5\2----------------|

G|----------------------------------------------|
D|----------------------------------------------|
A|--4------4-4--4--3--2------2-2-2-4/-----------|
E|----------------------------------------------|

[Refrão]

G|----------------------------------------------|
D|----------------------------------------------|
A|--12-----12--12----12-14-14-14-14-14-14-12-14-|
E|----------------14----------------------------|

G|----------------------------------------------|
D|----------------------------------------------|
A|--16-----16--16-14-16-17-17-17-17-17--16--14--|
E|----------------------------------------------|

G|----------------------------------------------|
D|-----14---------------------------------------|
A|-12-----12--12----12-14-14-14-14-14-14-12-14--|
E|---------------14-----------------------------|

G|----------------------------------------------|
D|----------------------------------------------|
A|--16-----16--16-14-16-17----17-17-17--16--14--|
E|----------------------------------------------|

[Segunda Parte]

G|----------------------------------------------|
D|----------------------------------------------|
A|--0---------------2------2--2-0-2-------------|
E|---------5--5-0-5-----------------------------|

G|----------------------------------------------|
D|----------------------------------------------|
A|--4------4--4-2-4-5------5---5-4/5-2----------|
E|----------------------------------------------|

G|----------------------------------------------|
D|----------------------------------------------|
A|------------------2------2--2-0-2-------------|
E|--5------5--5-0-5-----------------------------|

G|----------------------------------------------|
D|----------------------------------------------|
A|--4------4--4-2-4-5------5--5-7-9-------------|
E|----------------------------------------------|

[Pré-Refrão]

G|-------------------------------4--------------|
D|----------------------------------------------|
A|--4------4-4-4-5-4-2------2--2---2------------|
E|----------------------------------------------|

G|----------------------------------------------|
D|----------------------------------------------|
A|--4------4-4--4--3--2------2--2-0-2-----------|
E|----------------------------------------------|

G|----------------------------------------------|
D|----------------------------------------------|
A|--4------4--4--4-5-4--------------------------|
E|----------------------5--2/5\2----------------|

G|----------------------------------------------|
D|----------------------------------------------|
A|--4------4-4--4--3--2------2-2-2-4/-----------|
E|----------------------------------------------|

[Refrão]

G|----------------------------------------------|
D|----------------------------------------------|
A|--12--12-12--12----12-14------14--14-12-14----|
E|----------------14----------------------------|

G|----------------------------------------------|
D|----------------------------------------------|
A|--16-----16--16-14-16-17----17-17-17--16--14--|
E|----------------------------------------------|

G|----------------------------------------------|
D|----------------------------------------------|
A|-12--12-12--12----12-14----14--14-12-14-------|
E|---------------14-----------------------------|

G|----------------------------------------------|
D|----------------------------------------------|
A|--16-----16--16-14-16-17------17-17--16--14---|
E|----------------------------------------------|

[Terceira Parte]

G|----------------------------------------------|
D|----------------------------------------------|
A|--0------0--0--0-2------2--2-0-2--------------|
E|----------------------------------------------|

G|----------------------------------------------|
D|----------------------------------------------|
A|--4------4--4-2-4-5------5---5-4/5-2----------|
E|----------------------------------------------|

G|----------------------------------------------|
D|----------------------------------------------|
A|------------------2------2--2-0-2-------------|
E|--5------5--5-0-5-----------------------------|

G|----------------------------------------------|
D|----------------------------------------------|
A|--4------4--4-2-4-5------5------7-9-----------|
E|----------------------------------------------|

[Ponte]

G|----------------------------------------------|
D|-------------------------------7-9------------|
A|--7------7-7-7---7-9------9--9----------------|
E|---------------9------------------------------|

G|----------------------------------------------|
D|-------------------------------7--------------|
A|--7------7--7---7-9------9-9-9---9------------|
E|--------------9-------------------------------|

G|----------------------------------------------|
D|-------------------------------7-9------------|
A|--7------7-7-7---7-9------9--9----------------|
E|---------------9------------------------------|

G|----------------------------------------------|
D|----------------------------------------------|
A|--5------5-5-5---5-7-7-5--4--2----------------|
E|---------------7------------------------------|

[Quarta Parte]

G|----------------------------------------------|
D|----------------------------------------------|
A|------------------2------2--2-0-2-------------|
E|--5------5--5-0-5-----------------------------|

G|----------------------------------------------|
D|----------------------------------------------|
A|--4------4--4-2-4-5------5--5-4-2-------------|
E|----------------------------------------------|

G|----------------------------------------------|
D|----------------------------------------------|
A|------------------2------2--2-0-2-------------|
E|--5------5--5-0-5-----------------------------|

G|----------------------------------------------|
D|----------------------------------------------|
A|--4------4--4-2-4-5------5--5-7-9/------------|
E|----------------------------------------------|

[Refrão]

G|----------------------------------------------|
D|----------------------------------------------|
A|--12--12-12--12----12-14-14-14-14--14-12-14---|
E|----------------14----------------------------|

G|----------------------------------------------|
D|----------------------------------------------|
A|--16-----16--16-14-16-17----17-17-17--16--14--|
E|----------------------------------------------|

G|----------------------------------------------|
D|----------------------------------------------|
A|-12------12--12-----14----14--14-12-14--------|
E|----------------14----------------------------|

G|----------------------------------------------|
D|----------------------------------------------|
A|--16-----16------14-16-17--17-17-17--16--14---|
E|----------------------------------------------|

G|----------------------------------------------|
D|-----14---------------------------------------|
A|-12-----12--12-----14--14-14--14-12-14--------|
E|---------------14-----------------------------|

G|----------------------------------------------|
D|------18----------------------------14--16----|
A|--16-----16--16-14-16-17--17-17-17------------|
E|----------------------------------------------|

G|----------------------------------------------|
D|----------------------------------------------|
A|--0-------2-------4-------5---0---5--4--2--12-|
E|----------------------------------------------|
Outros vídeos desta música
45.937 exibições

Afinação da cifra

Afinador online

0 comentários

Ver todos os comentários

Entre para o Cifra Club PRO

Tenha acesso a benefícios exclusivos no App e no Site

  • Chega de anúncios

  • Mais recursos no app do Afinador

  • Atendimento Prioritário

  • Aumente seu limite de lista

  • Ajude a produzir mais conteúdo

Capítulos
  • Apresentação
  • Intro
  • Primeira Parte
  • Pré-Refrão
  • Refrão
  • Segunda Parte
  • Pré-Refrão 2
  • Refrão 2
  • Terceira Parte
  • Ponte
  • Quarta Parte
  • Refrão 3
  • Encerramento

Cifra Club Pro

Aproveite o Cifra Club com benefícios exclusivos e sem anúncios
Cifra Club Pro
Aproveite o Cifra Club com benefícios exclusivos e sem anúncios
OK