Cifra Club

In Between Days

The Cure

Cifra: Principal
exibições 153.414
Tom: A
Intro: Riff 1: A  E  A  D (2x)
       Riff 2: A  D (4x)
       Riff 3: Bm  E (2x)
       Riff 4 e Riff 2 (ao mesmo tempo): A  D (4x)


Riff 1:

E|----------------------------------------------------|
B|----------------------------------------------------|
G|-2-2-2-2-2-1---------2-2-2-2-2-4-4/6-6-6-6-6--------|
D|----------------2-2-2-------------------------------|
A|----------------------------------------------------|
E|----------------------------------------------------|

E|--------------------------------------------------|
B|--------------------------------------------------|
G|-2-2-2-2-2-1----2/7-7-7-7-2-2--2/7-7-7-7-2-2-1----|
D|----------------2------------------------------2--|
A|--------------------------------------------------|
E|--------------------------------------------------|

Riff 2: (é um A e um D  na verdade)

E|---------------------------------------------------------|
B|-2-2-2-2-3-2-2-2-2-2-------------------------------------|
G|--------------------------2------------------------------|
D|---------------------------------------------------------|
A|---------------------------------------------------------|
E|---------------------------------------------------------|

Riff 3:

E|----------------------|
B|----------------------|
G|--9-9-9-7-6-7-4-4-2-4-|
D|----------------------|
A|----------------------|
E|----------------------|

Riff 4:

E|----------------------------------|
B|----------------------------------|
G|-4-6-4-6-4-6-9-7-4-6-4-6-4-6-2-2--|
D|----------------------------------|
A|----------------------------------|
E|----------------------------------|

A           D          A                   D
Yesterday I got so old I felt like I could die
A           D          A                  D
Yesterday I got so old it made me want to cry
   A               D
Go on, go on, just walk away
   A               D
Go on, go on, your choice is made
   A              D
Go on, go on, and disappear
   A           D
Go on, go on, away from here
      Bm                      E
And I know I was wrong when I said it was true
        Bm                    E                  A           D
That it couldn't be me and be her in between without you
    A
Without you

A           D          A                   D
Yesterday I got so scared I shivered like a child
A           D          A                  D
Yesterday away from you it froze me deep inside
   A               D
Come back, come back, don't walk away
   A               D
Come back, come back, come back today
   A              D
Come back, come back, why can't you see
   A           D
Come back, come back, come back to me
      Bm                      E
And I know it was wrong when I said it was true
        Bm                    E                  A           D
That it couldn't be me and be her in between without you
    A
Without you
Acordes para:
    Composição: Robert SmithColaboração e revisão:

    0 comentários

      mostrar mais comentários

      Conseguiu tocar?

      25tocaram0ainda não

      Grave um vídeo tocando In Between Days e mande pra gente!

      00:00 / 00:00
      outros vídeos desta música
      repetirqualidadeautomática
      Outro vídeos desta música
        00:00 / 00:00
        automática
        OK