Notificações Amigos pendentes

      The Cure

      In Between Days

      132.585 exibições
      Tom: A
      Intro: Riff 1: A  E  A  D (2x)
             Riff 2: A  D (4x)
             Riff 3: Bm  E (2x)
             Riff 4 e Riff 2 (ao mesmo tempo): A  D (4x)
      
      
      Riff 1:
      
      
      E|----------------------------------------------------|
      B|----------------------------------------------------|
      G|-2-2-2-2-2-1---------2-2-2-2-2-4-4/6-6-6-6-6--------|
      D|----------------2-2-2-------------------------------|
      A|----------------------------------------------------|
      E|----------------------------------------------------|
      
      
      E|--------------------------------------------------|
      B|--------------------------------------------------|
      G|-2-2-2-2-2-1----2/7-7-7-7-2-2--2/7-7-7-7-2-2-1----|
      D|----------------2------------------------------2--|
      A|--------------------------------------------------|
      E|--------------------------------------------------|
      
      
      Riff 2: (é um A e um D  na verdade)
      
      
      E|---------------------------------------------------------|
      B|-2-2-2-2-3-2-2-2-2-2-------------------------------------|
      G|--------------------------2------------------------------|
      D|---------------------------------------------------------|
      A|---------------------------------------------------------|
      E|---------------------------------------------------------|
      
      
      Riff 3:
      
      
      E|----------------------|
      B|----------------------|
      G|--9-9-9-7-6-7-4-4-2-4-|
      D|----------------------|
      A|----------------------|
      E|----------------------|
      
      
      Riff 4:
      
      
      E|----------------------------------|
      B|----------------------------------|
      G|-4-6-4-6-4-6-9-7-4-6-4-6-4-6-2-2--|
      D|----------------------------------|
      A|----------------------------------|
      E|----------------------------------|
      
      
      A           D          A                   D
      Yesterday I got so old I felt like I could die
      A           D          A                  D
      Yesterday I got so old it made me want to cry
         A               D
      Go on, go on, just walk away
         A               D
      Go on, go on, your choice is made
         A              D
      Go on, go on, and disappear
         A           D
      Go on, go on, away from here
            Bm                      E
      And I know I was wrong when I said it was true
              Bm                    E                  A           D
      That it couldn't be me and be her in between without you
          A
      Without you
      
      A           D          A                   D
      Yesterday I got so scared I shivered like a child
      A           D          A                  D
      Yesterday away from you it froze me deep inside
         A               D
      Come back, come back, don't walk away
         A               D
      Come back, come back, come back today
         A              D
      Come back, come back, why can't you see
         A           D
      Come back, come back, come back to me
            Bm                      E
      And I know it was wrong when I said it was true
              Bm                    E                  A           D
      That it couldn't be me and be her in between without you
          A
      Without you
        Composição: Robert SmithColaboração e revisão:
        • claudiomarsal
        • nitai
        • Ariely
        • Douglas

        Comentários 3

        140 .
        140 cancelar

        conseguiu tocar?

        • •••
        0:00 / 0:00

        Capítulos

          3 versões de violão dificuldade exibições contribuição e correção
          3 versões de guitarra dificuldade exibições contribuição e correção
          3 versões de cavaco dificuldade exibições contribuição e correção
          3 versões de teclado dificuldade exibições contribuição e correção
          3 versões de baixo exibições contribuição e correção
          1 versão de gaita exibições contribuição e correção
          2 versões de Guitar Proformatodownloadscontribuição
          play/pausefechar subir/descer velocidade
          6ª corda E5ª corda A4ª corda D3ª corda G2ª corda B1ª corda E
            acordes
            publicidade
            fechar
            ok