Cifra Club

Aprenda

Rainy Days In The Big City

The Faulty

Cifra: Versão 2 (violão e guitarra)
tom: C
OBS: A guitarra 1 deve ser mais grave que a guitarra 2,
que por sua vez, tem que ser muito aguda.
(Intro)

Só Guitarra 2:
e||------2-----2------5----5--------------------------------------------------------------||
B||----3-----3---3------------------------------------------------------------------------||
G||--4-----4-------4-----4---4------------------------------------------------------------||  x 4
D||---------------------------------------------------------------------------------------||
A||---------------------------------------------------------------------------------------||
E||---------------------------------------------------------------------------------------||

(Riff 1)

Guitarra 1:
e||---------------------------------------------------------------------------------------||
B||---------------------------------------------------------------------------------------||
G||---4--4--4--2--2--2--4-----------------------------------------------------------------||  x 4
D||---4--4--4--2--2--2--4-----4--4--4--4--2--2--------------------------------------------||
A||---2--2--2--0--0--0--2-----4--4--4--4--2--2--------------------------------------------||
E||---------------------------2--2--2--2--0--0--------------------------------------------||

Guitarra 2 :
e||------2-----2------5----5--------------------------------------------------------------||
B||----3-----3---3------3---3-------------------------------------------------------------||
G||--4-----4-------4-----4---4------------------------------------------------------------||  x 4
D||---------------------------------------------------------------------------------------||
A||---------------------------------------------------------------------------------------||
E||---------------------------------------------------------------------------------------||

(Riff 2)

Guitarra 1:
     PM  PM PM  PM  PM  PM
e||---------------------------------------------------------------------------------------||
B||---------------------------------------------------------------------------------------||
G||---4--4--4--7--7--7--6-----------------------------------------------------------------|| X 4 
D||---4--4--4--7--7--7--6-----------------------------------------------------------------||
A||---2--2--2--5--5--5--4-----------------------------------------------------------------||
E||---------------------------------------------------------------------------------------||

Guitarra 2:
e||---------------------------5-5-5-5-5-2-2-----------------------------------------------||
B||---------------------------------------------------------------------------------------||
G||---4--4--4--7--7--7--6-----------------------------------------------------------------||  x 4
D||---------------------------------------------------------------------------------------||
A||---------------------------------------------------------------------------------------||
E||---------------------------------------------------------------------------------------||

(Riff 1)

Guitarra 1:
e||---------------------------------------------------------------------------------------||
B||---------------------------------------------------------------------------------------||
G||---4--4--4--2--2--2--4-----------------------------------------------------------------||  x 4
D||---4--4--4--2--2--2--4-----4--4--4--4--2--2--------------------------------------------||
A||---2--2--2--0--0--0--2-----4--4--4--4--2--2--------------------------------------------||
E||---------------------------2--2--2--2--0--0--------------------------------------------||

Guitarra 2 :
e||------2-----2------5----5--------------------------------------------------------------||
B||----3-----3---3------3---3-------------------------------------------------------------||
G||--4-----4-------4-----4---4------------------------------------------------------------||  x 4
D||---------------------------------------------------------------------------------------||
A||---------------------------------------------------------------------------------------||
E||---------------------------------------------------------------------------------------||

(Riff 3)

Guitarra 1:                                           
e||---------------------------------------------------------------------------------------||
B||---------------------------------------------------------------------------------------||
G||---4--------------------9--------------------7-----------------------------------------||  x 1
D||---4--------------------9--------------------7---------------------7-------------------||
A||---2--------------------7--------------------5---------------------7-------------------||
E||-------------------------------------------------------------------5-------------------||

Guitarra 2:
e||---------------------------------------------------------------------------------------||
B||---------------------------------------------------------------------------------------||
G||---4444444444444444444-999999999999999999999-777777777777777777777---------------------||  x 1
D||---4444444444444444444-999999999999999999999-777777777777777777777-777777777777777777--||
A||---2222222222222222222-777777777777777777777-555555555555555555555-777777777777777777--||
E||-------------------------------------------------------------------555555555555555555--||

Guitarra 1:
e||---------------------------------------------------------------------------------------||
B||---------------------------------------------------------------------------------------||
G||--4---------------------2---------------------7--7--9--9---------7--7--9--9------------||  x 1
D||--4---------------------2---------------------7--7--9--9--9--9---7--7--9--9--9--9-----7||
A||--2---------------------0---------------------5--5--7--7--9--9---5--5--7--7--9--9-----9||
E||----------------------------------------------------------7--7---------------7--7-----9||

Guitarra 2:
e||---------------------------------------------------------------------------------------||
B||---------------------------------------------------------------------------------------||
G||--44444444444444444444--22222222222222222222--7--7--9--9---------7--7--9--9------------||  x 1
D||--44444444444444444444--22222222222222222222--7--7--9--9--9--9---7--7--9--9--9--9-----7||
A||--22222222222222222222--00000000000000000000--5--5--7--7--9--9---5--5--7--7--9--9-----9||
E||----------------------------------------------------------7--7---------------7--7-----9||

ESPERA UM POUCO: (sÓ O BAIXO)
AÍ COMEÇA TUDO DENOVO...

(Intro)

Só Guitarra 2:
e||------2-----2------5----5--------------------------------------------------------------||
B||----3-----3---3------------------------------------------------------------------------||
G||--4-----4-------4-----4---4------------------------------------------------------------||  x 4
D||---------------------------------------------------------------------------------------||
A||---------------------------------------------------------------------------------------||
E||---------------------------------------------------------------------------------------||

(Riff 1)

Guitarra 1:
e||---------------------------------------------------------------------------------------||
B||---------------------------------------------------------------------------------------||
G||---4--4--4--2--2--2--4-----------------------------------------------------------------||  x 4
D||---4--4--4--2--2--2--4-----4--4--4--4--2--2--------------------------------------------||
A||---2--2--2--0--0--0--2-----4--4--4--4--2--2--------------------------------------------||
E||---------------------------2--2--2--2--0--0--------------------------------------------||

Guitarra 2 :
e||------2-----2------5----5--------------------------------------------------------------||
B||----3-----3---3------3---3-------------------------------------------------------------||
G||--4-----4-------4-----4---4------------------------------------------------------------||  x 4
D||---------------------------------------------------------------------------------------||
A||---------------------------------------------------------------------------------------||
E||---------------------------------------------------------------------------------------||

(Riff 2)

Guitarra 1:
     PM  PM PM  PM  PM  PM
e||---------------------------------------------------------------------------------------||
B||---------------------------------------------------------------------------------------||
G||---4--4--4--7--7--7--6-----------------------------------------------------------------|| X 4 
D||---4--4--4--7--7--7--6-----------------------------------------------------------------||
A||---2--2--2--5--5--5--4-----------------------------------------------------------------||
E||---------------------------------------------------------------------------------------||

Guitarra 2:
e||---------------------------5-5-5-5-5-2-2-----------------------------------------------||
B||---------------------------------------------------------------------------------------||
G||---4--4--4--7--7--7--6-----------------------------------------------------------------||  x 4
D||---------------------------------------------------------------------------------------||
A||---------------------------------------------------------------------------------------||
E||---------------------------------------------------------------------------------------||

(Riff 1 DENOVO)

Guitarra 1:
e||---------------------------------------------------------------------------------------||
B||---------------------------------------------------------------------------------------||
G||---4--4--4--2--2--2--4-----------------------------------------------------------------||  x 4
D||---4--4--4--2--2--2--4-----4--4--4--4--2--2--------------------------------------------||
A||---2--2--2--0--0--0--2-----4--4--4--4--2--2--------------------------------------------||
E||---------------------------2--2--2--2--0--0--------------------------------------------||

Guitarra 2 :
e||------2-----2------5----5--------------------------------------------------------------||
B||----3-----3---3------3---3-------------------------------------------------------------||
G||--4-----4-------4-----4---4------------------------------------------------------------||  x 4
D||---------------------------------------------------------------------------------------||
A||---------------------------------------------------------------------------------------||
E||---------------------------------------------------------------------------------------||

(Riff 3)

Guitarra 1:                                           
e||---------------------------------------------------------------------------------------||
B||---------------------------------------------------------------------------------------||
G||---4--------------------9--------------------7-----------------------------------------||  x 1
D||---4--------------------9--------------------7---------------------7-------------------||
A||---2--------------------7--------------------5---------------------7-------------------||
E||-------------------------------------------------------------------5-------------------||

Guitarra 2:
e||---------------------------------------------------------------------------------------||
B||---------------------------------------------------------------------------------------||
G||---4444444444444444444-999999999999999999999-777777777777777777777---------------------||  x 1
D||---4444444444444444444-999999999999999999999-777777777777777777777-777777777777777777--||
A||---2222222222222222222-777777777777777777777-555555555555555555555-777777777777777777--||
E||-------------------------------------------------------------------555555555555555555--||

Guitarra 1:
e||---------------------------------------------------------------------------------------||
B||---------------------------------------------------------------------------------------||
G||--4---------------------2---------------------7--7--9--9---------7--7--9--9------------||  x 1
D||--4---------------------2---------------------7--7--9--9--9--9---7--7--9--9--9--9-----7||
A||--2---------------------0---------------------5--5--7--7--9--9---5--5--7--7--9--9-----9||
E||----------------------------------------------------------7--7---------------7--7-----9||

Guitarra 2:
e||---------------------------------------------------------------------------------------||
B||---------------------------------------------------------------------------------------||
G||--44444444444444444444--22222222222222222222--7--7--9--9---------7--7--9--9------------||  x 1
D||--44444444444444444444--22222222222222222222--7--7--9--9--9--9---7--7--9--9--9--9-----7||
A||--22222222222222222222--00000000000000000000--5--5--7--7--9--9---5--5--7--7--9--9-----9||
E||----------------------------------------------------------7--7---------------7--7-----9||


AGORA, VÊM UMA PARTE ACUSTICA:

Guitarra 1:

e||--2--X--X--2---2--2/3--2--0-----2--X--X--0--X--X--0--0--0------------------------------||
b||--3--X--X--3-----------------3--3--X--X--3--X--X--3--3--3------------------------------||
g||--4--X--X--4--------------------4--X--X--3--X--X--3--3--3------------------------------|| X 4
D||--4--X--X--4--------------------4--X--X--3--X--X--3--3--3------------------------------||
A||--2--X--X--2--------------------2--X--X--0--X--X--0--0--0------------------------------||
E||---------------------------------------------------------------------------------------||


Guitarra 2:

e||2-----2-----2--5--2-----2-----2-----2--5--2------2-----2-----2--5--0---0---0---0-------||
B||---3-----3-----------3-----3-----3-----------3------3-----3----------3---3---3---3-----||
G||---------------------------------------------------------------------------------------||  x 4
D||---------------------------------------------------------------------------------------||
A||---------------------------------------------------------------------------------------||
E||---------------------------------------------------------------------------------------||

AGORA, VOLTA DISTORÇÃO:

(Riff 1)

Guitarra 1:
e||---------------------------------------------------------------------------------------||
B||---------------------------------------------------------------------------------------||
G||---4--4--4--2--2--2--4-----------------------------------------------------------------||  x 4
D||---4--4--4--2--2--2--4-----4--4--4--4--2--2--------------------------------------------||
A||---2--2--2--0--0--0--2-----4--4--4--4--2--2--------------------------------------------||
E||---------------------------2--2--2--2--0--0--------------------------------------------||

Guitarra 2 :
e||------2-----2------5----5--------------------------------------------------------------||
B||----3-----3---3------3---3-------------------------------------------------------------||
G||--4-----4-------4-----4---4------------------------------------------------------------||  x 4
D||---------------------------------------------------------------------------------------||
A||---------------------------------------------------------------------------------------||
E||---------------------------------------------------------------------------------------||


AGORA, VÊM OUTRA PARTE ACUSTICA:

Guitarra 1:

e||--2--X--X--2---2--2/3--2--0-----2--X--X--0--X--X--0--0--0--------2---------------------||
b||--3--X--X--3-----------------3--3--X--X--3--X--X--3--3--3--------3---------------------||
g||--4--X--X--4--------------------4--X--X--3--X--X--3--3--3--------4---------------------|| X 4
D||--4--X--X--4--------------------4--X--X--3--X--X--3--3--3--------4---------------------||
A||--2--X--X--2--------------------2--X--X--0--X--X--0--0--0--------2---------------------||
E||---------------------------------------------------------------------------------------||


fim
364 exibições
    • ½ Tom
    • A
    • Bb
    • B
    • C
    • Db
    • D
    • Eb
    • E
    • F
    • F#
    • G
    • Ab
  • Adicionar à lista

    0 comentários

    Ver todos os comentários

    Conseguiu tocar?

    0 Tocaram 0 Ainda não

    Grave um vídeo tocando Rainy Days In The Big City e nos envie!

    00:00 / 00:00
    outros vídeos desta música
    repetir qualidade Automático
    Outros vídeos desta música
    00:00 / 00:00
    Automático

    Cifra Club Pro

    Aproveite o Cifra Club com benefícios exclusivos e sem anúncios
    Cifra Club Pro
    Aproveite o Cifra Club com benefícios exclusivos e sem anúncios
    OK