Cifra Club

Eu não sabia que você existia

The Fevers

Cifra: Principal (violão e guitarra)
Selo Cifra Club: esta cifra foi revisada para atender aos critérios oficiais da nossa Equipe de Qualidade.
tom: Dm
[Intro] F  G#  F  G# 

F               A7           Dm           Cm  F7
Quando eu te conheci meu bem, não acreditei
A#            C               Am Dm
Você era garota que eu sonhei
A#            C               Am Dm
Seus olhos lindos sempre olhando nos meus
Gm                          C7
Olhei pro céu e até meu bem, dei graças a Deus

F               A7        Dm  Cm F7
Por ter enfim encontrado o amor
A#                 C             Am Dm
Que eu sempre esperei com todo ardor
A#           C          Am           Dm
Jamais imaginei meu bem te ver algum dia

G            C7              F  G#  F  G#
Eu não sabia que você existia

[Solo] F  A7  Dm  Cm  F7
       A#  C  Am  Dm
       A#  C  Am  Dm
       Gm  C7

[Solo]

E|----------------------------------------------------|
B|----------------------------------------------------|
G|----------------------------------------------------|
D|----------------------------------------------------|
A|----------------------3h5-3h5-5-5-3-----------------|
E|-1-1-1-1-1-1/5--5-3-5---------------1-5-------------|

E|----------------------------------------------------|
B|----------------------------------------------------|
G|----------------------------------------------------|
D|----------------------------------------------------|
A|-1-1-1-1-1-1/3-3-3h5-3---------3h5-3h5-3------------|
E|-----------------------5~--3-5------------5---------|

E|----------------------------------------------------|
B|----------------------------------------------------|
G|----------------------------------------------------|
D|----------------------------------------------------|
A|-1-1-1-1-1-1/3-3-3h5-3---------3h5-5-5--------------|
E|-----------------------5~--3-5----------3-----------|

E|----------------------------------------------------|
B|----------------------------------------------------|
G|----------------------------------------------------|
D|----------------------------------------------------|
A|-----5-----5---3---3--------------------------------|
E|-3-3-----3---3--------5-3-1-------------------------|

F               A7           Dm           Cm  F7
Quando eu te conheci meu bem, não acreditei
A#            C               Am Dm
Você era garota que eu sonhei
A#            C               Am Dm
Seus olhos lindos sempre olhando nos meus
Gm                          C7
Olhei pro céu e até meu bem, dei graças a Deus

F               A7        Dm  Cm F7
Por ter enfim encontrado o amor
A#                 C             Am  Dm
Que eu sempre esperei com todo ardor
A#           C          Am           Dm
Jamais imaginei meu bem te ver algum dia

G            C7              F  Dm
Eu não sabia que você existia
G            C7              F  Dm
Eu não sabia que você existia
G            C7              F  G# F G#
Eu não sabia que você existia

[Final] G#  G  F#  F7
00:00 / 00:00
Outros vídeos desta música
Repetir
Outros vídeos desta música
812 exibições
    • ½ Tom
    • Am
    • Bbm
    • Bm
    • Cm
    • C#m
    • Dm
    • Ebm
    • Em
    • Fm
    • F#m
    • Gm
    • G#m
  • Adicionar à lista

Afinação da cifra

Afinador online

    0 comentários

    Ver todos os comentários

    Entre para o Cifra Club PRO

    Tenha acesso a benefícios exclusivos no App e no Site

    • Chega de anúncios

    • Mais recursos no app do Afinador

    • Atendimento Prioritário

    • Aumente seu limite de lista

    • Ajude a produzir mais conteúdo

    00:00 / 00:00

    Cifra Club Pro

    Aproveite o Cifra Club com benefícios exclusivos e sem anúncios
    Cifra Club Pro
    Aproveite o Cifra Club com benefícios exclusivos e sem anúncios
    OK