Cifra Club

Baby Doll

The Fratellis

Cifra: Principal (violão e guitarra)
Selo Cifra Club: esta cifra foi revisada para atender aos critérios oficiais da nossa Equipe de Qualidade.
tom: G
G:320033
Em:022000
Am:x02210
D:xx0232
D6:xx0202
C:x32010

[Verse 1]
G
Baby doll
                                 Em
Do you believe they'll catch you when you fall?
         Am                              D
And when morning comes, the sun is gonna shine
G
Don't forget
                               Em
Your minor keys, your half-lit cigarette
            Am                                      D
'Cause when morning comes, God knows that you'll be mine

[Pre-Chorus 1]
          G D6
So let me in
             Em         G           C
I'm ready to beg and to sing for my sins
                Em        G           C
Not leave it to chance, a sweet coincidence
                 Am
Well that's just crazy
                  D optional:D/G(xx0233)D
And you know it's true

[Chorus 1]
          G D          Em
Well they said you was long gone
       C           G
I just laughed and said
     C                D
"All right, bring her home tonight"
      G             D          Em
And I heard you was graciously put on
                   C
I just laughed and said
      G            C      D
"Good night, guess it's alright"

[Verse 2]
[Verse Chords]G,Em,Am,D 2x
Baby doll
The men who hang like flowers in your hall
Are asking when your love is gonna show
And who knows why
The love you need will always pass you by?
Well I heard it's true
Your love is gonna grow

[Pre-Chorus 2]
[Pre-Chorus Chords]G,D6,Em,G,C,Em,G,C,Am,D
So let me know
'Cause I can stay, or honey I can go
Just to wherever you tell me so
I'll find my place there
And there I'll stay

[Chorus 2]
[Chorus
Chords]G,D,Em,C,G,C,D 2x
Well they said you was burned out
I just laughed and said
"Come on, she's not burnt, she's just gone"
And it took me too long 'til I found out
Faces that you know the best, oh well I guess

[Chorus 3]
[Chorus
Chords]G,D,Em,C,G,C,D 2x
And they laughed when you said you was leaving
Everybody knows you well, except for me, can't you tell?
And you once from the wings of the late show
Roses by your feet all red, for me you said

[Outro]
[Verse Chords]G,Em,Am,D
Baby doll, Baby doll, Baby doll, Baby doll...

Outro Solo:

E|--3-5-5/7-5-3---------------| 2x
B|--------------7-5-----------|
G|----------------------------|
D|----------------------------|
A|----------------------------|
E|----------------------------|

e- -3-5-5/7-5-3---------------|
B|--------------7-7-5-7-------|
G|----------------------------|
D|----------------------------|
A|----------------------------|
E|----------------------------|

E|--3-5-5/7-5-3---------------| 2x
B|--------------7-5-----------|
G|----------------------------|
D|----------------------------|
A|----------------------------|
E|----------------------------|

E|--3-5-5/7-5-3---------------|
B|--------------7-7-5-3-------|
G|----------------------------|
D|----------------------------|
A|----------------------------|
E|----------------------------|

E|--------------0-2-3--4x-----------------------|
B|--0-1-3--4x-----------------------------------|
G|--------------------------2-4-5--4x---5-4-5-4-|
D|----------------------------------------------|
A|----------------------------------------------|
E|----------------------------------------------|
Outros vídeos desta música
    11 exibições
      • ½ Tom
      • A
      • Bb
      • B
      • C
      • Db
      • D
      • Eb
      • E
      • F
      • F#
      • G
      • Ab
    • Adicionar à lista

    Afinação da cifra

    Afinador online

      0 comentários

      Ver todos os comentários

      Conseguiu tocar?

      0Tocaram0Ainda não

      Grave um vídeo tocando Baby Doll e nos envie!

      Toque também

      1. Imagem do artista Maxïmo ParkA19 Maxïmo Park
      2. Imagem do artista Little Man TateWhat What You Got Little Man Tate
      3. Imagem do artista The Pigeon DetectivesHold Your Gaze The Pigeon Detectives
      4. Imagem do artista Dirty Pretty ThingsGin And Milk Dirty Pretty Things

      Entre para o Cifra Club PRO

      Tenha acesso a benefícios exclusivos no App e no Site

      • Chega de anúncios

      • Badges exclusivas

      • Mais recursos no app do Afinador

      • Atendimento Prioritário

      • Aumente seu limite de lista

      • Ajude a produzir mais conteúdo

      Cifra Club Pro

      Aproveite o Cifra Club com benefícios exclusivos e sem anúncios
      Cifra Club Pro
      Aproveite o Cifra Club com benefícios exclusivos e sem anúncios
      Ops (: Contenido disponible sólo en portugués.
      OK