Cifra Club

Ole Blank N Blue Eyes

The Fratellis

Cifra: Principal (violão e guitarra)
Selo Cifra Club: esta cifra foi revisada para atender aos critérios oficiais da nossa Equipe de Qualidade.
tom: E
G||-------7-|-------7-|-------------7---|-7----------7----||-------------|
D||-8-------|-7-------|---------------8-|-----------------||-------------|
A||---------|---------|-----------------|----------------o||-------------|
E||---------|---------|-----------------|-----------------||-------------|

  2.
E|---3---4---------|
B|-4---5---6-5-4-3-|
G|-----------------|
D|-----------------|
A|-----------------|
E|-----------------|

e||---6-----|---5-----|-6-8-6-8-6-8-10-|-----6--6-------|---3---4---------||
B||-----6---|-----6---|----------------|---6------6---6-|-4---5---6-5-4-3-||
G||-------7-|-------7-|----------------|-7----------7---|-----------------||
D||-8-------|-7-------|----------------|----------------|-----------------||
A||---------|---------|----------------|----------------|-----------------||
E||---------|---------|----------------|----------------|-----------------||
Outros vídeos desta música
    5 exibições
      • ½ Tom
      • A
      • Bb
      • B
      • C
      • Db
      • D
      • Eb
      • E
      • F
      • F#
      • G
      • Ab
    • Adicionar à lista

    Afinação da cifra

    Afinador online

      0 comentários

      Ver todos os comentários

      Conseguiu tocar?

      0Tocaram0Ainda não

      Grave um vídeo tocando Ole Blank N Blue Eyes e nos envie!

      Toque também

      1. Imagem do artista Maxïmo ParkApply Some Pressure Maxïmo Park
      2. Imagem do artista Dirty Pretty ThingsBang Bang You're Dead Dirty Pretty Things
      3. Imagem do artista Little Man TateWhat What You Got Little Man Tate
      4. Imagem do artista The Pigeon DetectivesIm Not Sorry The Pigeon Detectives

      Entre para o Cifra Club PRO

      Tenha acesso a benefícios exclusivos no App e no Site

      • Chega de anúncios

      • Badges exclusivas

      • Mais recursos no app do Afinador

      • Atendimento Prioritário

      • Aumente seu limite de lista

      • Ajude a produzir mais conteúdo

      Cifra Club Pro

      Aproveite o Cifra Club com benefícios exclusivos e sem anúncios
      Cifra Club Pro
      Aproveite o Cifra Club com benefícios exclusivos e sem anúncios
      OK