Cifra Club

Aprenda

How To Save a Life

The Fray

Cifra: Versão 3 (violão e guitarra)
Tom: A#
i tabbed this song at like 2 in the morning so forgive me if im wrong.
when i was listening to the song to tab it, i think i picked up the harmony instead, so
me know if i did. it still goes well with the song anyways.

this song goes in a pattern, its just the verses and the chorus

im not going to write out the specific strumming but its basically:
down down up ; up down up
..simple enough
just listen to the damn song if u cant get it


e|------------------------------------------------------------------|
B|---3----4---6----4------------------------------------------------|
G|---3----3---7----5------------------------------------------------|
D|---3----1---5----3------------------------------------------------|
A|---1--------------------------------------------------------------|
E|------------------------------------------------------------------|
   the verses


chorus:
e|------------------------------------------------------------------|
B|---------------6---6----------------------------------------------|
G|-(3)--(5)------7---5----------------------------------------------|
D|--5----7-------8---7----------------------------------------------|
A|--6----8----------------------------------------------------------|
E|--6----8----------------------------------------------------------|
 where did i go wrong i lost a friend
somewhere along in the bitterness


e|------------------------------------------------------------------|
B|---------------6------------------------3-------------------------|
G|-(3)--(5)------7---3-3-3-3---2-2-2-2----3-------------------------|
D|--5----7-------8---3-3-3-3---3-3-3-3----3-------------------------|
A|--6----8-----------1-1-1-1---1-1-1-1----1-------------------------|
E|--6----8----------------------------------------------------------|
and i would have stayed up with u all night
had i known how to save a life

.......and then to another verse
......then the chorus
.....then another verse
....then the chorus 2x
...then u play the verses
..then the chorus again 2x
.then freestyle yooo
it goes back to what u were playing in the verses

and then thats IT!!!
Composição de Isaac Slade / Joe King
8.231 exibições
    • ½ Tom
    • A
    • Bb
    • B
    • C
    • Db
    • D
    • Eb
    • E
    • F
    • F#
    • G
    • Ab
  • Adicionar à lista

    0 comentários

    Mostrar mais comentários

    Conseguiu tocar?

    0 Tocaram 0 Ainda não

    Grave um vídeo tocando How To Save a Life e mande pra gente!

    00:00 / 00:00
    outros vídeos desta música
    repetir qualidade Automático
    Outros vídeos desta música
    00:00 / 00:00
    Automático

    Cifra Club Pro

    Aproveite o Cifra Club com benefícios exclusivos e sem anúncios
    Cifra Club Pro
    Aproveite o Cifra Club com benefícios exclusivos e sem anúncios
    OK