Cifra Club

By the grace of god

The Hellacopters

Cifra: Principal (violão e guitarra)
Selo Cifra Club: esta cifra foi revisada para atender aos critérios oficiais da nossa Equipe de Qualidade.
tom: E
Hey girl you'll landed
You got supplies if they demand it
You got the looks and the glamour
cut by the chisel and beat by the hammer

There naive so they beleave it 
and they will act like dog when they recieve it
Though the darkness and the haze 
a straight and narrow fall from grace

They need, they yearn
they lust with cheeks unturned
hands shake and heads will nod
they get by by the grace of god.

Hey boy you understand 
say your prayers or you'll be damned
he's a watcher and a voyer 
bystander and destroyer

They need, they yearn
they lust with cheeks unturn
hands shake and heads will nod
they get by by the grace of god.

yeh they get by

SOLO

They need, they yearn
they lust with cheeks unturn
hands shake and heads will nod
they get by by the grace of god.

yeh they get by by the grace of god
we get by, we get by
by the grace of god

-------
Standard tuning

Cords
G#      466xxx
E*      x799xx
C#      x466xx
E       022xxx

Introdução:
(É acompanhada pela base: G#  E*  C#  E)

e|--------11--------------------------------------11------------------------
B|----12-----12----------------------------12--------12---------------------
G|-13---13------13----------------------13----13--------13------------------
D|------------------13---14-13--------------------------------13---13-------
A|---------------------------14--11----------------------------------14-11--
E|--------------------------------------------------------------------------

e|--------11--------------------------------------11------------------------
B|----12-----12----------------------------12--------12---------------------
G|-13---13------13----------------------13----13--------13------------------
D|------------------13---14-13--------------------------------13---13-------
A|---------------------------14--11----------------------------------14-11--
E|--------------------------------------------------------------------------

e|--------11--------------------------------------11------------------------
B|----12-----12----------------------------12--------12---------------------
G|-13---13------13----------------------13----13--------13------------------
D|------------------13---14-13--------------------------------13---13-------
A|---------------------------14--11----------------------------------14-11--
E|--------------------------------------------------------------------------

e|--------11--------------------------------------11------------------------
B|----12-----12----------------------------12--------12---------------------
G|-13---13------13----------------------13----13--------13------------------
D|------------------13---14-13--------------------------------13---13-------
A|---------------------------14--11----------------------------------14-11--
E|--------------------------------------------------------------------------
Riff 1  
(É tocado durante o refrão e algumas outras partes da musica.É acompanhado pela base: G#  E*  C#  E)

e|--------11--------------------------------------11------------------------
B|----12-----12----------------------------12--------12---------------------
G|-13---13------13----------------------13----13--------13------------------
D|------------------13---14-13--------------------------------13---13-------
A|---------------------------14--11----------------------------------14-11--
E|--------------------------------------------------------------------------


Vers/Chorus
        G#      E*      C#      E
e|----------------------------------
B|----------------------------------
G|--------------9-------6-----------
D|------6-------9-------6-------2---
A|------6-------7-------4-------2---
E|------4-----------------------0---

PRE Chorus - Cord change tempo twise the verse during Riff 1
    G#  E5  C#  E
e|------------------
B|------------------
G|------9---6-------
D|--6---9---6---2---
A|--6---7---4---2---
E|--4-----------0---

SOLO
   G#               E*          C#               E
e|-----------11-----------------------14------------------------
B|----12-------12---------------14b16---16r14-12-14b16r14-12----
G|--13--13---------------------------------------------------13-
D|-----------------13/14----------------------------------------
A|-----------------------14--11---------------------------------
E|--------------------------------------------------------------

   G#              E*                C#                  E
e|-----------11----------------------16b-16b-16b-16b-16b-16b------
B|----12-------12-------------------------------------------------
G|--13--13----------------------------------------------------13--
D|----------------13/14--13---------------------------------------
A|---------------------------14--11-------------------------------
E|----------------------------------------------------------------

   G#       E*                         C#                       E
e|-----------------------------------------------------------------------
B|------------------------------------------14b16r14-12----------12------
G|-11h13----13p11---------------------11-13-------------13-11-13----13---
D|-----------------13p11--------11h13------------------------------------
A|-----------------------14-11-------------------------------------------
E|-----------------------------------------------------------------------

                G#                E*            C#                
e|-------14-11-------------------------------14b16-14b16-14b16r14-
B|----12-------14-12---14p12--12-14b-14b-14b----------------------
G|-13----------------13-----13------------------------------------
D|----------------------------------------------------------------
A|----------------------------------------------------------------
E|----------------------------------------------------------------

    E
e|-19b21-19b21-19b21-19b21r19-------------
B|---------------------------19-14-12-----
G|------------------------------------13--
D|----------------------------------------
A|----------------------------------------
E|----------------------------------------
Outros vídeos desta música
    16.890 exibições
      • ½ Tom
      • A
      • Bb
      • B
      • C
      • Db
      • D
      • Eb
      • E
      • F
      • F#
      • G
      • Ab
    • Adicionar à lista

    Afinação da cifra

    Afinador online

      0 comentários

      Ver todos os comentários

      Entre para o Cifra Club PRO

      Tenha acesso a benefícios exclusivos no App e no Site

      • Chega de anúncios

      • Badges exclusivas

      • Mais recursos no app do Afinador

      • Atendimento Prioritário

      • Aumente seu limite de lista

      • Ajude a produzir mais conteúdo

      Cifra Club Pro

      Aproveite o Cifra Club com benefícios exclusivos e sem anúncios
      Cifra Club Pro
      Aproveite o Cifra Club com benefícios exclusivos e sem anúncios
      OK