Cifra Club

Hopeless case of a kid in denial

The Hellacopters

Cifra: Principal (violão e guitarra)
Selo Cifra Club: esta cifra foi revisada para atender aos critérios oficiais da nossa Equipe de Qualidade.
tom: A
Intro:  Intro Riff    x3



E---------------------------------------------------------

B--------------4-----------------------------7------------

G--------6--------6-----6--------------9-----------9------

D-----6-----6--------6--------------9-----9-----9-----9---

A--4----------------------------/7------------------------

E---------------------------------------------------------



Alternative way to play the intro: (Sounds like the record)



E--------------------------------------0-----------0------

B--------------4--------------------0-----0-----0-----0---

G--------6--------6-----6-------------------11------------

D-----6-----6--------6------------------------------------

A--4----------------------------/7------------------------

E---------------------------------------------------------





Riff  1   x2



                        only this part twice

D--9-||---9--7-|-----4--6------4--6-----4--9-----4---11-----

A--7-||---7--5-|-----2--4------2--4-----2--7-----2----9-----



The last B can also be played like this:



D--4--     D-----

A--2--  =  A--9--

E-----     E--7--



Little interlude part



E------------------------------------------------

B------------------------------------------------

G--11b--11b--11b--11rp9----------------9---------

D-----------------------11-11~~--9h11----11-11~~-

E---------12------------------------------------------

B-------------12--------------------------------------

G--9-11b--hold----r11p9------9-9h11--9-----9-h-11~~---

D------------------------11------------11-------------





Verse 1: 



Riff 2    x4



D-------4--6------4--6-----4--9-----4-----11---

A-------2--4------2--4-----2--7-----2------9---





Riff 2b   x4            . = staccato note

          . . .          . . .          . . .        

D-----4/6-6-6-6------4/6-6-6-6------4/9-9-9-9----4-----11---

A-----2/4-4-4-4------2/4-4-4-4------2/7-7-7-7----2------9---





Chorus 1:       Riff 3  x1



D----6------9------8----11-----------------------------

A----4------7------6-----9------9----8-----6----4------

E-------------------------------7----6-----4----2------



Verse 2 :   same as verse 1

Riff  2     x4

Riff  2b    x4



Chorus  2:          Riff  3b    x1      

 

D----6------9------8----11------------------------------4--6--

A----4------7------6-----9------9----8-----6----4-------2--4--

E-------------------------------7----6-----4----2-------------

D---9---8---6---4---11-11---6---|---9---8---6---4---11-11---6---|

A---7---6---4---2----9--9---4---|---7---6---4---2----9--9---4---|

pm                   *  *                            *  *



D---9---8---6---4---11-11---6---|

A---7---6---4---2----9--9---4---|

pm                   *  *               





Solo:



Sorry, no solo): Just play something Hellacopterish in C# or C#m.

Under the solo is:



Riff 2      x2

Chorus 1    x1



And then...



Intro Riff    x3



Bridge :

D---9--7------9--7-----9--7-----9--7---

A---7--5------7--5-----7--5-----7--5---



Riff  2b   x1



Riff  3    x1



Ending :



D---4--6----4--6----4--6----

A---2--4----2--4----2--4----    fading...
Outros vídeos desta música
4.983 exibições
    • ½ Tom
    • A
    • Bb
    • B
    • C
    • Db
    • D
    • Eb
    • E
    • F
    • F#
    • G
    • Ab
  • Adicionar à lista

Afinação da cifra

Afinador online

    0 comentários

    Ver todos os comentários

    Entre para o Cifra Club PRO

    Tenha acesso a benefícios exclusivos no App e no Site

    • Chega de anúncios

    • Mais recursos no app do Afinador

    • Atendimento Prioritário

    • Aumente seu limite de lista

    • Ajude a produzir mais conteúdo

    Cifra Club Pro

    Aproveite o Cifra Club com benefícios exclusivos e sem anúncios
    Cifra Club Pro
    Aproveite o Cifra Club com benefícios exclusivos e sem anúncios
    OK