Cifra Club

Aprenda

Don't Upset The Rhythm

Noisettes

Cifra: Principal (violão e guitarra)
Tom: A
(intro) Abm

B
Don't upset the rhythm no
Abm
B
Don't upset the rhythm
Abm
The time is right
B
Th' sun is sleeping in the sky
Abm
Free your mind
B
You never know what you might find

E |------------------------------|
B |------------------------------|
G |------------------------------|   (2x)
D |--4-4-3--4-4-3--4-4-3-----3---|
A |----------------------4--4----|
E |------------------------------|

What's your vise ?
You know we won't compromise

Abm
So let me show you
B
Something super beautiful
Abm
Lets rock the boat
B
The magic is unstoppable !
Abm
Four on the floor
B
That's the rhythm you've been wai-ting for

E |------------------------------|
B |------------------------------|
G |------------------------------|   (2x)
D |--4-4-3--4-4-3--4-4-3-----3---|
A |----------------------4--4----|
E |------------------------------|

Pure delight - Kick, Snare, hat, ride!

Abm            B
Its all up to you
                 E
And whatever you do (don't)
             Eb7
Cut into my action
4-3-2-1..

(chorus)
Abm
(Go baby, go baby GO !)
B
Don't upset the rhythm no
Abm
(Go baby, go baby GO !)
B
Don't upset the rhythm
Abm
(Go baby, go baby GO !)
B
Don't upset the rhythm, don't you dare
Abm
(Go baby, go baby GO !)
B
Don't upset the rhythm

Abm
Skin and bone
B
And the baton microphone
Abm
Can't get home
B
But you can use my dog and bone
Abm
We'll crank that stereo
B
Even when the speakers blow

E |------------------------------|
B |------------------------------|
G |------------------------------|   (2x)
D |--4-4-3--4-4-3--4-4-3-----3---|
A |----------------------4--4----|
E |------------------------------|

D
Just meet me up in paradise..
Composição de The Noisettes
Colaboração e revisão:
  • Gabriel Ayroso
388 exibições
    • ½ Tom
    • A
    • Bb
    • B
    • C
    • Db
    • D
    • Eb
    • E
    • F
    • F#
    • G
    • Ab
  • Adicionar à lista

    0 comentários

    Mostrar mais comentários

    Conseguiu tocar?

    0 Tocaram 0 Ainda não

    Grave um vídeo tocando Don't Upset The Rhythm e mande pra gente!

    00:00 / 00:00
    outros vídeos desta música
    repetir qualidade Automático
    Outros vídeos desta música
    00:00 / 00:00
    Automático
    OK