Cifra Club

Aprenda

Doo Doo Doo Doo Doo Heartbreaker

The Rolling Stones

Cifra: Principal (violão e guitarra)
Tom: D
|--------------------|--------------------|
|----------2---------|--------------------|
|-1--1-----2---1-----|-4--4-----------4---|
|-2--2---------2-2---|-5--5---5-5-----5---|
|-2--2---2-----------|-5--5-------5---5-3-|
|-0--0-0-----0-----3-|------3-------3-----|

|--------------------|--------------------|
|--------------------|--------------------|
|--------------------|--------------------|
|--------------------|------------------5-|
|--------------------|------------------3-|
|--------------------|--------------------|

|------------------------|-----------------|
|--1----1----------------|-----------------|
|--0----0----0-2-0---0---|-----------------|
|--2---(2)-----------2---|-----------------|
|----------3-------3-----|-----------------|
|----------------------0-|-(0)------(0)-0--|

|------------------------|-----------------|
|------------------------|-----------------|
|----------------------9-|-(9)-------------|
|-(5)------------------7-|-(7)-------------|
|-(3)------------------0-|-(0)-------------|
|------------------------|-----------------|

|----0---------------|---3------3-------------3---|
|-0--0----------0----|---3------3------5-5----3---|
|-x--x----------1----|---4------4------5-5----4---|
|-2--2---------------|---5------5------5-5----5---|
|-2-------4----------|----------------------------|
|-0-------5p0-0----3-|-------3--------------3---8-|

|--------------------|----------------------------|
|--------------------|----------------------------|
|----9----9---9------|------12-12-----12---12-----|
|----9----9---9---12-|-(12)-12-12----------12---5-|
|-7-----7---------10-|-(10)----10--10-----------3-|
|--------------------|----------------------------|

|--8-----8-------------8---|--------------|
|--8-----8-------------8---|--------------|
|--9-----9-----9-10----9---|--------------|
|-10----10----10-10---10---|--------------|
|--------------------------|--------------|
|-----8-------------8----0-|--0-----------|

|--------------------------|--------------|
|--------------------------|--------------|
|-----5--5-----5----5------|--------------|
|-(5)-5--5-----5---------9-|-(9)----------|
|-(3)----3--3--3---------7-|-(7)----------|
|------------------------0-|-(0)----------|

|-10--10-10-----10----|-7--7---------------|---------------------|
|--8------8------8----|-8----x---------7---|---------------------|
|--7------------------|-7----x---------7---|-5-(5)-------5-----5-|
|---------------------|----------x-7h9-----|-5h=7----5h7-5h7---5-|
|---------------------|--------------------|---------------------|
|---------------------|--------------------|---------------------|

|-----------------------|----10--10-10-------|---------7-7----------|
|-----------------------|-----8---8--8-----8-|-(8)--8----8----------|
|-----------------------|-----7------------7-|-(7)--7----7-----7----|
|-5-(5)--------5--------|--------------------|---------------7h9----|
|-5h=7----5h7-(7)-(7)---|-7------------------|----------------------|
|-----------------------|--------------------|----------------------|

|-------------------|------10--10---10-----|
|-------------------|-------8---8-8--8-x---|
|-5-(5)-------5-----|-------7-----7----x---|
|-5h=7----5-x---5---|-------9-----9------9-|
|-----------------7-|-(7)----------------7-|
|-------------------|----------------------|

|------------------------|
|-----------2------------|
|-1--1------2---1--------|
|-2--2----------2-2------|
|-2--2----2--------------|
|-0--0--0-----0--------3-|

|------------------------|
|------------------------|
|---------------9--------|
|-9--9----9-9---9--------|
|-7--7------7---7---7h10-|
|-0----------------------|

|------------------------------|-------------------------|
|------------------------------|--1-----1----------------|
|---4------4---------------4---|--0-----0----0-2-0---0---|
|---5------5-----5--5------5---|--2----(2)-----------2---|
|---5------5----------5----5-3-|-----------3-------3-----|
|-------------3----------3-----|-----------------------0-|

|------------------------------|-------------------------|
|------------------------------|-------------------------|
|------12-12-------------------|-----5---------5---5-----|
|------12-12----12------12---5-|-(5)-5--5------5-------9-|
|-(10)----10----10-10---10-0-3-|-(3)----3------------0-7-|
|------------------------------|-----------------------0-|

|-------------------------|-----0-------------|---3------3----------3---|
|-------------------------|-0---0--------0----|---3------3---5-5----3---|
|-------------------------|-x---x--------1----|---4------4---5-5----4---|
|-------------------------|-2---2-------------|---5------5---5-5----5---|
|-------------------------|-2------4----------|-------------------------|
|-(0)---------------(0)-0-|-0------5p0-0----3-|-------3-----------3---8-|

|-------------------------|-------------------|-------------------------|
|-------------------------|-------------------|-------------------------|
|-----9-7-----9-7----7----|---9-9--9---9------|-------------12---12-----|
|-(9)-9p7-----9p7----7----|---9-9--9---9------|------12-12--12---12---5-|
|-(7)-------7-----------7-|-7-7-7--7---7---10-|-(10)-10-10-------10-0-3-|
|-(0)-------------0-----0-|-0------0----------|-------------------------|

|--8-----8-----------8---|---------------|
|--8-----8-----------8---|---------------|
|--9-----9---9-10----9---|---------------|
|-10----10--10-10---10---|---------------|
|------------------------|---------------|
|-----8-----------8----0-|-0-------------|

|------------------------|---------------|
|------------------------|---------------|
|-----5-----------5------|---------------|
|-(5)----5---5---------9-|-9-------(9)---|
|-(3)----3---3-------0-7-|-7-------(7)---|
|----------------------0-|-0-------(0)---|

|-10--10-10-----10------|-7--7-x---------------|-------------------|
|--8------8--------8----|-8----x---------------|-------------------|
|--7--------------------|-7----x-------7-7---0-|-5------5-(5)-5----|
|--9--------------------|----------7h9---7h9p0-|-5-7----5h=7--5----|
|--7--------------------|----------0-----------|-----------------5-|
|-----------------------|----------------------|-------------------|

|------------------|---------10---10-------|------7--7----------|
|------------------|------8-----8----8---8-|-(8)--8----8--------|
|------------------|---------------------7-|-(7)-------7---7----|
|------------5-5---|-----------------------|--------------------|
|-5h7----5h7-----7-|-(7)-------------------|-------------7---5--|
|------------------|-----------------------|--------------------|

|-------------------------|-------10-10---10-10-10---|
|-------------------------|----8---8--8----8--8--8---|
|--------5-(5)-5-(5)------|----7---7--7----7-------7-|
|-5h7----5--7--5--7---7p5-|----9---9---------------9-|
|-0-----------------------|-7--7-------------------7-|
|-------------------------|------------------------0-|

|-------------------------------|----------------------------------------|
|-------------------2-----------|----------------------------------------|
|-1---1-------------2----1------|---4----4--------------------------4----|
|-2---2------------------2-2----|---5----5-----------5----5---------5----|
|-2---2---------2---------------|---5----5-------------------5------5--3-|
|-0---0-----0----------0------3-|---------------3---------------3--------|

|-------------------------------|----------------------------------------|
|-------------------------------|----------------------------------------|
|-------------------9----9------|------------------------12----12--------|
|-----9-------------9----9---12-|-(12)-------------------12----12------5-|
|-----7-------------7--------10-|-(10)-------------------------10---0--3-|
|-0---0-------------------------|----------------------------------------|

|-------------------------------|----------------------------------------|
|-------------------------------|----------------------------------------|
|-------------------------------|----------------------------------------|
|-------------------------------|----------------------------------------|
|----17-19-20-/21-(21)----------|-------17---18---19-----21-19-17-(17)---|
|----10-12-13-/14-(14)----------|-------10---11---12-----14-12-10-(10)---|

|-------------------------------------|
|--1-----1----------------------------|
|--0-----0-------0--2--0-----0--------|
|--2----(2)------------------2--------|
|--------------3----------3-----------|
|----------------------------------0--|

|-------------------------------------|
|-------------------------------------|
|-------------------------------------|
|-(5)----5----------5-----5--------9--|
|-(3)-3--3----------3-----3--------7--|
|----------------------------------0--|

|-------------------------------------|
|-------------------------------------|
|-------------------------------------|
|-------------17---------17-------17--|
|-------17h19-10---17h19-10-17h19-10--|
|-------10h12------10h12----10h12-----|

|-------------------------------------|-----0-------------------------|
|-------------------------------------|-0---0--------------------0----|
|-------------------------------------|-x---x--------------------1----|
|-------------------------------------|-2---2-------------------------|
|-------------------------------------|-2-----------------4-----------|
|-(0)-----------------------(0)-----0-|-0-----------------5p=0-0----3-|

|-------------------------------------|-------------------------------|
|-------------------------------------|-------------------------------|
|-----9p7--------9p=7--------7------9-|-9---9-------------------------|
|-(9)-9p7--------9p=7h=9-----7------9-|-9---9-------------9----9---12-|
|-(7)-------------------------------7-|-7---7-------------7----7-0-10-|
|-(0)-------------------------------0-|-0---0-------------0-----------|

|-------------------------------------|-------------------------------|
|---------------------------17--17-17-|-------------------------------|
|---------------------16h19--9---9--9-|-------------------------------|
|---------------17h19--9h12-----------|-------------------------------|
|---------17h19-10h12-----------------|----17-19-20-/21-(21)----------|
|---------10h12-----------------------|----10-12-13-/14-(14)----------|

|---3------3------------------------3------|
|---3------3------------5-5---------3------|
|---4------4------------5-5---------4------|
|---5------5------------5-5---------5------|
|------------------------------------------|
|-------3--------------------3---------8---|

|------------------------------------------|
|------------------------------------------|
|------12-12-----------12---12-------------|
|-(12)-12-12-----------12---12---------5---|
|-(10)-10-10-----------10-----------0--3---|
|------------------------------------------|

|------------------------------------------|
|------------------------------------------|
|------------------------------------------|
|------------------------------------------|
|---------17---18-19---21---19-17-(17)-----|
|---------10---11-12---14---12-10-(10)-----|

|--8------8-----------------8-------|--------------------------------------|
|--8------8-----------------8-------|--------------------------------------|
|--9------9--------9-10-----9-------|--------------------------------------|
|-10-----10-------10-10----10-------|--------------------------------------|
|-----------------------------------|--------------------------------------|
|-----8------------------8--------0-|--0-----------------------------------|

|-----------------------------------|--------------------------------------|
|-----------------------------------|--------------------------------------|
|-----5------------------5--------9-|-(9)-9p7--------9-----7----(7)--------|
|-(5)-5------------5-----5--------9-|-(9)-9p7------------------------9-----|
|-(3)-3------------3--------------7-|-(7)-7--------------------------------|
|---------------------------------0-|-(0)----------------------------------|

|-----------------------------------|--------------------------------------|
|-----------------------------------|---------------------------17--17--17-|
|-----------------------------------|---------------------16h19--9---9---9-|
|--------------17-------17-------17-|---------------17h19--9h12------------|
|--------17h19-10-17h19-10-17h19-10-|---------17h19-10h12------------------|
|--------10h12----10h12----10h12----|---------10h12------------------------|

|-----------------------------|
|-----------------------------|
|-----------------------------|
|----9-9-9-------9---------12-|
|----7-7-7--7----7----0----10-|
|-0--0-----------0------------|

|-----------------------------|
|-----------------------------|
|-----------------------------|
|----------21-21---19---17----|
|----------14-14---12---10-19-|
|--------------------------12-|

|------------------------------------|------------------------------|
|------------------------------------|------------------------------|
|------12-12-----12----12------------|------5-5---5----5------------|
|-(12)----12-----12----12----------5-|--(5)-5-5---5----5----------9-|
|-(10)----10--12-10----------0-----3-|--(3)-3-3---3----3----0-----7-|
|------------------------------------|----------------------------0-|

|------------------------------------|------------------------------|
|------------------------------------|------------------------------|
|------------------------------------|------------------------------|
|----------------21-21----19---17----|-----------21-21---19---17----|
|-(19)-----------14-14----12---10-19-|-(19)------14-14---12---10-19-|
|-(12)----------------------------12-|-(12)----------------------12-|

|-------------------------------------|-------------------------------|
|------9------------------------------|-------------------------------|
|------9-7--------9p=7--------7-------|-------9----------9------------|
|--(9)------------9--7h=9-----7-----9-|-9-9-9-9-----9----9---------12-|
|--(7)------------------------------7-|-7-7-7-7--7--7---------0----10-|
|--(0)------------------------------0-|-0-----0-----------------------|

|-------------------------------------|-------------------------------|
|----------------------------17-17-17-|-------------------------------|
|----------------------16h19--9--9--9-|-------------------------------|
|----------------17h19--9h12----------|------------21-21---19---17----|
|-(19)-----17h19-10h12----------------|------------14-14---12---10-19-|
|-(12)-----10h12----------------------|----------------------------12-|

|--------------------------------------|
|--------------------------------------|
|------12-12-----------12--------------|
|--12--12-12--12-12----12----------5---|
|--10--10-10--10-10----10----0-----3---|
|--------------------------------------|

|--------------------------------------|
|--------------------------------------|
|--------------------------------------|
|----------------21-21----19---17------|
|-(19)-----------14-14----12---10-19---|
|-(12)----------------------------12---|

|--------------------------------|--------|
|--------------------------------|--------|
|------5-5----------5------------|--------|
|--(5)-5-5-----5----5----------9-|-(9)----|
|--(3)-3-3--3--3----3----------7-|-(7)----|
|------------------------------0-|-(0)----|

|--------------------------------|--------|
|--------------------------------|--------|
|--------------------------------|--------|
|-------------21-21---19---17----|-17-----|
|-(19)--------14-14---12---10-19-|-10-----|
|-(12)------------------------12-|--------|

||-----------------|---------------------------------------------|
||-----------------|----------------------------------5----------|
||-----------------|-----------------------------7-7-------------|
||-----------------|-----------------------------8h9-----7-----7-|
||-----------------|---------------------------------------------|
||--0--------------|-----------(0)-------------------------------|

||-----------------|---------------------------------------------|
||-----------------|---------------------------------------------|
||-14b16-----------|-14b14.5==(14)r(14)p12-(12)---------11s12----|
||-----------------|---------------------------------------------|
||-----------------|---------------------------------------------|
||-----------------|---------------------------------------------|

||-----------------|---------------------------------------------|
||--8-----7--8--8--|------------8------------7-----8-----8-------|
||--9-----7--9--7--|------------9------------7-----9-----7-------|
||-----------9--7--|-------------------------------9-----7-------|
||-----------------|---------------------------------------------|
||-----------------|---------------------------------------------|

|----------------------------------------|
|---5------------------------------------|
|---5------------------------------------|
|---7------------------------------------|
|----------------------------------------|
|----------------------------------------|

|----------------------------------------|
|----------------------------------------|
|-/14-12----\11-\9---(9)-/11s/12s\11s\9--|
|----------------------------------------|
|----------------------------------------|
|----------------------------------------|

|----------------------------------------|
|---8-----7--------8---------------8-----|
|---9-----7--------9---------------7-----|
|------------------9---------------7-----|
|----------------------------------------|
|----------------------------------------|

|----------------------------|-------------------------------|
|--------------8--8---(8)----|-------------------------------|
|--------------9--9----7-----|--9-------------------(9)------|
|--------------9--9----7-----|--9-------------------(9)------|
|----------------------------|--7-------------------(7)----7-|
|-----0----------------------|--0-------------------(0)------|

|----------------------------|--------------------------12---|
|----------------------8--10-|-10s12--(12)--(12)-15----------|
|-9-/11s\9s7-7s9-(9)---------|-------------------------------|
|----------------------------|-------------------------------|
|----------------------------|-------------------------------|
|----------------------------|-------------------------------|

|----------------------------|-------------------------------|
|-----8----7------8----8-----|--8-------7-----8------8-------|
|-----9----7------9----7-----|--9-------7-----9------7-------|
|-----------------9----7-----|----------------9------7-------|
|----------------------------|-------------------------------|
|----------------------------|-------------------------------|

|-12s14s==15---15s17---15-14------|
|------------------------------15-|
|---------------------------------|
|---------------------------------|
|---------------------------------|
|---------------------------------|

|---------------------------------|
|-----8-----------------8----8----|
|-----------------------9----7----|
|-----------------------9----7----|
|--------------------7------------|
|---------------------------------|

|-----------------------------------------------|
|-15b17-(15)----15pb17-(15)-12------------------|
|------------------------------14b16==(14)r(14)-|
|-----------------------------------------------|
|-----------------------------------------------|
|-----------------------------------------------|

|-----------------------------------------------|
|---------5-------------------------------------|
|---------5-------------------------------------|
|---------7-------------------------------------|
|---------0-------------------------------------|
|-----------------------------------------------|

|--------------------------------------------------------|
|--------------------------------------------------------|
|--------------------------------------------------------|
|--------------------------------------------------------|
|--------------------------------------------------------|
|---------------------------------------------------[15]-|

|--------------------------------------------------------|
|--------------------------------------------------------|
|-12b14==(12)r12-----------------------------12------12--|
|------------------14p12----12-(12)-12-12h14-----14------|
|------------------------14------------------------------|
|--------------------------------------------------------|

|--------------------------------------------------------|
|--------------------------------------------------------|
|--7------(7)----7--7------------------------------------|
|--8h======9-----8h=9------------------------------------|
|--x-------x-----x--x------------5---5-----5-(5)--6---7--|
|--0------(0)----0--0------------------------------------|

|-----------------------|-------------------------|--------------------------|
|------------2----------|-------------------------|--1-----1-----------------|
|-1----1-----2---1------|---4---4-------------4---|--0-----0----0-2-0---0----|
|-2----2---------2-2----|---5---5---5--5------5---|--2----(2)-----------2----|
|-2----2---2------------|---5---5--------5----5-3-|-----------3-------3------|
|-0----0-0-----0------3-|---------3---------3-----|-----------------------0--|

|-----------------------|-------------------------|--------------------------|
|-----------------------|-------------------------|--------------------------|
|------9---------9---12-|-(12)--------12---12-----|-----5--5------5---5------|
|------9-----9---9---12-|-(12)--------12---12-----|-----5--5------5---5---9--|
|------7-----7-------10-|-(10)------------------3-|-(3)-3--3------3-------7--|
|-x\---------0----------|-------------------------|-----------------------0--|

|----------------------|------0---------------|---3----3----------3---|
|----------------------|--0---0----------0----|---3----3---5-5----3---|
|----------------------|--x---x----------1----|---4----4---5-5----4---|
|----------------------|--2---2---------------|---5----5---5-5----5---|
|----------------------|--2--------4----------|-----------------------|
|-(0)------------(0)-0-|--0--------5p0-0----3-|------3----------3---8-|

|----------------------|----------------------|-----------------------|
|----------------------|----------------------|-----------------------|
|-----9p7--9p7----7----|-----------9---9------|-----------12----------|
|-(9)------------------|------9--9-9---9---12-|-(12)------12---12---5-|
|-(7)----------------7-|-(7)--7--7-7---7---10-|-(10)----------------3-|
|-(0)----------0-------|------0--------0------|-----------------------|

|--8-----8-----------8---|--------------------|--------------------------------|
|--8-----8-----------8---|--------------------|---------------------2----------|
|--9-----9---9-10----9---|--------------------|--1----1-------------2----1-----|
|-10----10--10-10---10---|--------------------|--2----2------------------2-2---|
|------------------------|--------------------|--2----2---------2--------------|
|-----8-----------8----0-|--0-----------------|--0----0-----0----------0-----3-|

|------------------------|--------------------|--------------------------------|
|------------------------|--------------------|--------------------------------|
|-----5--5---5----5------|-----9p7--9p7---7---|-------9-------------9----9-----|
|-(5)-5--5---5----5----9-|-(9)----------9---9-|-(9)---9-------------9----9-----|
|-(3)-3--3---3----3--x-7-|-(7)--------------7-|-(7)---7-------------7----7---5-|
|----------------------0-|-(0)--------------0-|-(0)---0-------------0--------3-|

|------------------------|--------------------|--------------------------------|
|------------------------|--------------------|--------------------------------|
|------------------------|--------------------|--------------------------------|
|------------------------|--------------------|--------------------------------|
|------------------------|--------------------|------17-19-20-/21-(21)---------|
|------------------------|--------------------|------10-12-13-/14-(14)---------|

|-----------------------------------------|
|-----------------------------------------|
|--4------4--------------------------4----|
|--5------5-----------5----5---------5----|
|--5------5-------------------5------5--3-|
|----------------3---------------3--------|
|
| +E  Q.                   E     E   E  E
|-----------------------------------------|
|-----------------------------------------|
|-----------------------------------------|
|-----5--------------------5-----5------5-|
|-(5)-5--------------------5-----5------3-|
|-(3)-3--------------------3-----3--------|

|-----------------------------------------|
|-----------------------------------------|
|-----------------------------------------|
|-----------------------------------------|
|--------17---18---19-----21-19-17-(17)---|
|--------10---11---12-----14-12-10-(10)---|

|------------------------------------|-------------------------------------|
|--1-----1---------------------------|-------------------------------------|
|--0-----0-------0--2--0-----0-------|-------------------------------------|
|--2----(2)------------------2-------|-------------------------------------|
|--------------3----------3----------|-------------------------------------|
|----------------------------------0-|-(0)-----------------------(0)-----0-|

|------------------------------------|-------------------------------------|
|------------------------------------|-------------------------------------|
|-----5--5----------5-----5----------|-----9p7--------9p=7--------7--------|
|-(5)-5--5----------5-----5--------9-|-(9)------------9--7h=9-----7------9-|
|-(3)-3--3----------3--------------7-|-(7)-------------------------------7-|
|----------------------------------0-|-(0)-------------------------------0-|

|------------------------------------|-------------------------------------|
|------------------------------------|---------------------------17--17-17-|
|------------------------------------|---------------------16h19--9---9--9-|
|-------------17---------17-------17-|---------------17h19--9h12-----------|
|-------17h19-10---17h19-10-17h19-10-|---------17h19-10h12-----------------|
|-------10h12------10h12----10h12----|---------10h12-----------------------|

|-------0-------------------------|
|--0----0--------------------0----|
|--x----x--------------------1----|
|--2----2-------------------------|
|--2------------------4-----------|
|--0------------------5p=0-0----3-|

|---------------------------------|
|---------------------------------|
|-------9-------------9----9------|
|-(9)---9-------------9----9------|
|-(7)---7-------------7----7---10-|
|-(0)---0-------------0----0------|

|---------------------------------|
|---------------------------------|
|---------------------------------|
|---------------------------------|
|------17-19-20-/21-(21)----------|
|------10-12-13-/14-(14)----------|

|---3------3----------------------3----|--8-----8-----------------8-------|
|---3------3------------5--5------3----|--8-----8-----------------8-------|
|---4------4------------5--5------4----|--9-----9--------9-10-----9-------|
|---5------5------------5--5------5----|-10----10-------10-10----10-------|
|--------------------------------------|----------------------------------|
|-------3---------------------3------8-|-----8-----------------8--------0-|

|--------------------------------------|----------------------------------|
|--------------------------------------|----------------------------------|
|------12-12-----------12----12--------|-----5--5--------5-----5----------|
|---------12-----------12----12------5-|-(5)----5--------5-----5----------|
|-(10)-----------------10----10------3-|-(3)----3--------3-----3--------7-|
|--------------------------------------|--------------------------------0-|

|--------------------------------------|----------------------------------|
|--------------------------------------|----------------------------------|
|--------------------------------------|----------------------------------|
|--------------------------------------|-------------17-------17-------17-|
|---------17---18-19---21-19-17-(17)---|-------17h19-10-17h19-10-17h19-10-|
|---------10---11-12---14-12-10-(10)---|-------10h12----10h12----10h12----|

|------------------------------------|--------------------------------|
|------------------------------------|--------------------2-----------|
|------------------------------------|-1---1--------------2----1------|
|------------------------------------|-2---2-------------------2-2----|
|------------------------------------|-2---2----------2---------------|
|--0---------------------------------|-0---0------0----------0------3-|

|------------------------------------|--------------------------------|
|------------------------------------|--------------------------------|
|-----9p7--------9p=7--------7-----9-|-----9--------------9----9------|
|-----9-7-------------h9-----7-----9-|-----9----------9---9----9---12-|
|-(7)--------------------------------|-7---7----------7---7----7---10-|
|-(0)--------------------------------|-----0--------------0----0------|

|---------------------------19-19-19-|--------------------------------|
|---------------------------17-17-17-|--------------------------------|
|---------------------16h19----------|--------------------------------|
|---------------17h19--9h12----------|--------------------------------|
|---------17h19-10h12----------------|----17--19-20-/21-(21)----------|
|---------10h12----------------------|----10--12-13-/14-(14)----------|

|-------------------------------------------|
|-------------------------------------------|
|---4------4--------------------------4-----|
|---5------5-----------5----5---------5-----|
|---5------5-------------------5------5--3--|
|-----------------3---------------3---------|

|-------------------------------------------|
|-------------------------------------------|
|--------------------------12----12---------|
|-(12)----12---------------12----12------5--|
|-(10)-10-10---------------10------------3--|
|-------------------------------------------|

|-------------------------------------------|
|-------------------------------------------|
|-------------------------------------------|
|-------------------------------------------|
|---------17---18---19-----21-19-17-(17)----|
|---------10---11---12-----14-12-10-(10)----|

|------------------------------------|
|--1-----1---------------------------|
|--0-----0-------0--2--0-----0-------|
|--2----(2)------------------2-------|
|--------------3----------3----------|
|----------------------------------0-|

|------------------------------------|
|------------------------------------|
|-----5--5----------5-----5----------|
|-(5)-5--5----------5-----5--------9-|
|-(3)-3--3----------3--------------7-|
|----------------------------------0-|

|------------------------------------|
|------------------------------------|
|------------------------------------|
|-------------17---------17-------17-|
|-------17h19-10---17h19-10-17h19-10-|
|-------10h12------10h12----10h12----|

|------------------------------------|-----0---------------------------|
|------------------------------------|-0---0--------------------0------|
|------------------------------------|-x---x--------------------1------|
|------------------------------------|-2---2---------------------------|
|------------------------------------|-2-----------------4-------------|
|-(0)----------------------(0)-----0-|-0-----------------5p=0-0----3---|

|------------------------------------|---------------------------------|
|------------------------------------|---------------------------------|
|------------------------------------|-----9-------------9----9--------|
|-(9)--9-------(9)-------------------|-----9-------------9----9---12---|
|-(7)--7-------(7)-------------------|-----7-------------7----7---10---|
|-(0)--0-------(0)-------------------|-0---0-------------0-------------|

|--------------------------19--19-19-|---------------------------------|
|--------------------------17--17-17-|---------------------------------|
|--------------------16h19-----------|---------------------------------|
|--------------17h19--9h12-----------|---------------------------------|
|--------17h19-10h12-----------------|----17-19-20-/21-(21)------------|
|--------10h12-----------------------|----10-12-13-/14-(14)------------|

|---3------3----------------------3----|
|---3------3------------5--5------3----|
|---4------4------------5--5------4----|
|---5------5------------5--5------5----|
|--------------------------------------|
|-------3---------------------3------8-|

|--------------------------------------|
|--------------------------------------|
|------12-12-----------12----12--------|
|-(12)----12-----------12----12------5-|
|-(10)----10-----------10------------3-|
|--------------------------------------|

|--------------------------------------|
|--------------------------------------|
|--------------------------------------|
|--------------------------------------|
|---------17---18-19---21-19-17-(17)---|
|---------10---11-12---14-12-10-(10)---|

|--8-----8-----------------8-------|-------------------------------------|
|--8-----8-----------------8-------|-------------------------------------|
|--9-----9--------9-10-----9-------|-------------------------------------|
|-10----10-------10-10----10-------|-------------------------------------|
|----------------------------------|-------------------------------------|
|-----8-----------------8--------0-|--0----------------------------------|

|----------------------------------|-------------------------------------|
|----------------------------------|-------------------------------------|
|-----5--5--------5--5--5----------|-----9-----------9-------------------|
|-(5)----5--------5--5--5----------|-----9-----------9-------------------|
|-(3)----3--------3--3--3--------7-|-(7)-7-----------7-------------------|
|--------------------------------0-|-(0)-------------0-------------------|

|----------------------------------|----------------------------18-19-19-|
|----------------------------------|----------------------------17-17-17-|
|----------------------------------|----------------------16h19----------|
|-------------17-------17-------17-|----------------17h19--9h12----------|
|-------17h19-10-17h19-10-17h19-10-|----------17h19-10h12----------------|
|-------10h12----10h12----10h12----|----------10h12----------------------|

|---------------------------------|------------------------------------------|
|---------------------2-----------|------------------------------------------|
|--1----1-------------2----1------|---4------4--------------------------4----|
|--2----2------------------2-2----|---5------5-----------5----5---------5----|
|--2----2---------2---------------|---5------5-------------------5------5--3-|
|--0----0-----0----------0------3-|-----------------3---------------3--------|

|---------------------------------|------------------------------------------|
|---------------------------------|------------------------------------------|
|-(9)---9-------------9----9------|--------------------------12----12--------|
|-(9)---9-------------9----9------|------12-12---------------12----12------5-|
|-(7)---7-------------7----7---10-|-(10)-10-10---------------10------------3-|
|-(0)---0-------------------------|------------------------------------------|

|---------------------------------|------------------------------------------|
|---------------------------------|------------------------------------------|
|---------------------------------|------------------------------------------|
|---------------------------------|------------------------------------------|
|------17-19-20-/21-(21)----------|---------17---18---19-----21-19-17-(17)---|
|------10-12-13-/14-(14)----------|---------10---11---12-----14-12-10-(10)---|

|-------------------------------------|
|--1-----1----------------------------|
|--0-----0-------0--2--0-----0--------|
|--2----(2)------------------2--------|
|--------------3----------3-----------|
|----------------------------------0--|

|-------------------------------------|
|-------------------------------------|
|--------5----------5-----5-----------|
|-(5)-5--5----------5-----5-----------|
|-(3)-3--3----------3--------------7--|
|----------------------------------0--|

|-------------------------------------|
|-------------------------------------|
|-------------------------------------|
|-------------17---------17-------17--|
|-------17h19-10---17h19-10-17h19-10--|
|-------10h12------10h12----10h12-----|

|-------------------------------------|-------0-------------------------|
|-------------------------------------|--0----0--------------------0----|
|-------------------------------------|--x----x--------------------1----|
|-------------------------------------|--2----2-------------------------|
|-------------------------------------|--2------------------4-----------|
|--0------------------------(0)-----0-|--0------------------5p=0-0----3-|

|-------------------------------------|---------------------------------|
|-------------------------------------|---------------------------------|
|-----9p7--------9p=7--------7--------|-------9-------------9----9------|
|-----9-7--------9--7h=9-----7------9-|-(9)---9-------------9----9---12-|
|-(7)-------------------------------7-|-(7)---7-------------7----7---10-|
|-(0)---------------------------------|--0----0-------------0-----------|

|---------------------------19--19-19-|---------------------------------|
|---------------------------17--17-17-|---------------------------------|
|---------------------16h19-----------|---------------------------------|
|---------------17h19--9h12-----------|---------------------------------|
|---------17h19-10h12-----------------|------17-19-20-/21-(21)----------|
|---------10h12-----------------------|------10-12-13-/14-(14)----------|

|---3------3-----------------------3----|
|---3------3------------5---5------3----|
|---4------4------------5---5------4----|
|---5------5------------5---5------5----|
|---------------------------------------|
|-------3----------------------3------8-|

|---------------------------------------|
|---------------------------------------|
|------12-12----------------------------|
|-(12)-12-12----------------------------|
|-(10)----10-----------10---------------|
|---------------------------------------|

|---------------------------------------|
|---------------------------------------|
|---------------------------------------|
|---------------------------------------|
|---------17---18-19---21--19-17-(17)---|
|---------10---11-12---14--12-10-(10)---|

|--8----8-----------------8-------|
|--8----8-----------------8-------|
|--9----9--------9-10-----9-------|
|-10---10-------10-10----10-------|
|---------------------------------|
|----8-----------------8--------0-|

|---------------------------------|
|---------------------------------|
|-------5--------5-----5----------|
|-------5--------5-----5--------9-|
|--3----3--------3--------------7-|
|-------------------------------0-|

|---------------------------------|
|---------------------------------|
|---------------------------------|
|------------17-------17-------17-|
|------17h19-10-17h19-10-17h19-10-|
|------10h12----10h12----10h12----|

|------------------------------------|-------------------------------|
|------------------------------------|-------------------2-----------|
|------------------------------------|-1---1-------------2----1------|
|------------------------------------|-2---2------------------2-2----|
|------------------------------------|-2---2---------2---------------|
|--0---------------------------------|-0---0-----0----------0------3-|

|------------------------------------|-------------------------------|
|------------------------------------|-------------------------------|
|------------------------------------|-------------------9----9------|
|-(9)--------------------------------|-----9-------------9----9---12-|
|-(7)--------------------------------|-----7-------------7----7---10-|
|-(0)--0-----------------------------|-0---0------------------0------|

|---------------------------19-19-19-|-------------------------------|
|---------------------------17-17-17-|-------------------------------|
|---------------------16h19----------|-------------------------------|
|---------------17h19--9h12----------|-------------------------------|
|---------17h19-10h12----------------|----17-19-20-/21-(21)----------|
|---------10h12----------------------|----10-12-13-/14-(14)----------|

|------------------------------------------|
|------------------------------------------|
|---4------4--------------------------4----|
|---5------5-----------5----5---------5----|
|---5------5-------------------5------5--3-|
|-----------------3---------------3--------|

|------------------------------------------|
|------------------------------------------|
|---------12---------------12----12--------|
|-(12)-12-12---------------12----12------5-|
|-(10)-10-10---------------10----10------3-|
|------------------------------------------|

|------------------------------------------|
|------------------------------------------|
|------------------------------------------|
|------------------------------------------|
|---------17---18---19-----21-19-17-(17)---|
|---------10---11---12-----14-12-10-(10)---|

|------------------------------------|-------------------------------------|
|--1-----1---------------------------|-------------------------------------|
|--0-----0-------0--2--0-----0-------|-------------------------------------|
|--2----(2)------------------2-------|-------------------------------------|
|--------------3----------3----------|-------------------------------------|
|----------------------------------0-|-(0)-----------------------(0)-----0-|

|------------------------------------|-------------------------------------|
|------------------------------------|-------------------------------------|
|-----5--5----------5-----5----------|-----9p7--------9p=7--------7--------|
|-(5)----5----------5-----5----------|-----9-7--------9--7h=9-----7--------|
|-(3)----3----------3--------------7-|-(7)-------------------------------7-|
|----------------------------------0-|-(0)---------------------------------|

|------------------------------------|---------------------------19--19-19-|
|------------------------------------|---------------------------17--17-17-|
|------------------------------------|---------------------16h19-----------|
|-------------17---------17-------17-|---------------17h19--9h12-----------|
|-------17h19-10---17h19-10-17h19-10-|---------17h19-10h12-----------------|
|-------10h12------10h12----10h12----|---------10h12-----------------------|

|-------0--------------------------|
|--0----0---------------------0----|
|--x----x---------------------1----|
|--2----2--------------------------|
|--2-------------------4-----------|
|--0-------------------5p=0-0----3-|

|----------------------------------|
|----------------------------------|
|-------9----------9---9----9------|
|-------9----------9---9----9---12-|
|-(7)---7----------7---7----7---10-|
|--0----0--------------0----0------|

|----------------------------------|
|----------------------------------|
|----------------------------------|
|----------------------------------|
|------17--19-20-/21-(21)----------|
|------10--12-13-/14-(14)----------|

|---3------3----------------------3----|--8-----8-----------------8-------*|
|---3------3------------5--5------3----|--8-----8-----------------8-------*|
|---4------4------------5--5------4----|--9-----9--------9-10-----9-------*|
|---5------5------------5--5------5----|-10----10-------10-10----10-------*|
|--------------------------------------|----------------------------------*|
|-------3---------------------3------8-|-----8-----------------8--------0-*|

|--------------------------------------|----------------------------------*|
|--------------------------------------|----------------------------------*|
|----------------------12----12--------|-----5--5--------5-----5----------*|
|-(12)----12-----------12----12------5-|-(5)-5--5--------5-----5----------*|
|-(10)-10-10-----------10------------3-|-(3)----3--------3----------------*|
|--------------------------------------|----------------------------------*|

|--------------------------------------|----------------------------------*|
|--------------------------------------|----------------------------------*|
|--------------------------------------|----------------------------------*|
|--------------------------------------|-------------17-------17-------17-*|
|---------17---18-19---21-19-17-(17)---|-------17h19-10-17h19-10-17h19-10-*|
|---------10---11-12---14-12-10-(10)---|-------10h12----10h12----10h12----*|
Composição de Keith Richards / Mick Jagger
1.730 exibições
    • ½ Tom
    • A
    • Bb
    • B
    • C
    • Db
    • D
    • Eb
    • E
    • F
    • F#
    • G
    • Ab
  • Adicionar à lista

    0 comentários

    Mostrar mais comentários

    Conseguiu tocar?

    0 Tocaram 0 Ainda não

    Grave um vídeo tocando Doo Doo Doo Doo Doo Heartbreaker e mande pra gente!

    00:00 / 00:00
    outros vídeos desta música
    repetir qualidade Automático
    Outros vídeos desta música
    00:00 / 00:00
    Automático

    Cifra Club Pro

    Aproveite o Cifra Club com benefícios exclusivos e sem anúncios
    7 dias grátis
    Cifra Club Pro
    Aproveite o Cifra Club com benefícios exclusivos e sem anúncios
    7 dias grátis
    OK