Cifra Club

Aprenda

Her Sweet Kiss

The Witcher

Cifra: Principal (violão e guitarra)
tom: Bm
[Intro] Bm

   Bm   
E|----------------------------------------------------|
B|-3---------3-2-0-----3--------3---------3-----------|
G|-----4-----------2-------4---------4--------4-------|
D|---4---4---------------4---4-----4---4----4---4-----|
A|-2---------2---------2--------2---------2-----------|
E|----------------------------------------------------|

   D/F#    G7M
E|----------------------------------------------------|
B|-3-------3---------3----------3--------3------------|
G|-----2--------4---------4----------4--------4-------|
D|---4--------4---4-----4---4------4---4----4---4-----|
A|----------------------------------------------------|
E|-2-------3---------3----------3--------3------------|

   E/G#
E|----------------------------------------------------|
B|-5----------5----------5-----------5----------------|
G|------4----------4----------4-----------4-----------|
D|----2---2------2---2------2---2-------2---2---------|
A|----------------------------------------------------|
E|-4----------4----------4-----------4----------------|

   A                    A#º
E|----------------------------------------------------|
B|-2--------2-----------2--------2--------------------|
G|-----2---------2----------0----------0--------------|
D|---2---2-----2---2------2---2------2---2------------|
A|-0--------0-----------1--------1--------------------|
E|----------------------------------------------------|

[Primeira Parte]

Bm                           D/F#   G7M
 The fairer sex, they often call it

But her love’s as unfair as a crook
E/G#
It steals all my reason, commits every treason
   A                         A#º
Of logic, with naught but a look
Bm                          D/F# G7M
 A storm breaking on the horizon
   
Of longing and heartache and lust
      E/G#
She’s always bad news, it’s always lose, lose
    A                           A#º
So tell me love, tell me love, how is that just?
 
[Refrão]

G                   E
 But the story is this
                          Bm
She’ll destroy with her sweet kiss
                
Her sweet kiss, O-oh
G                E
But the story is this
                          Bm        
She’ll destroy with her sweet kiss
 
[Segunda Parte]

Bm                              D/F# G7M
 Her current is pulling you closer
   
And charging the hot, humid night
     E/G#
The red sky at dawn is giving a warning
     A                        A#º
You fool, better stay out of sight
Bm                              D/F# G7M
 I’m weak my love, and I am wanting
    
If this is the path I must trudge
   E/G#
I welcome my sentence, give to you my penance
    A                A#º
Garrotter, jury and judge
 
[Refrão]

G                   E
 But the story is this
                          Bm
She’ll destroy with her sweet kiss
                
Her sweet kiss, O-oh
G                E
But the story is this
                          Bm        
She’ll destroy with her sweet kiss

G                   E
 But the story is this
                          Bm
She’ll destroy with her sweet kiss
                
Her sweet kiss, O-oh
G                E
But the story is this
                          Bm        
She’ll destroy with her sweet kiss
 
G               E
 The story is this
                          D/F# G   E/G#  A  A#º  Bm   
She’ll destroy with her sweet kiss
Colaboração e revisão:
  • Getúlio Vasconcelos
4 exibições
    • ½ Tom
    • Am
    • Bbm
    • Bm
    • Cm
    • C#m
    • Dm
    • Ebm
    • Em
    • Fm
    • F#m
    • Gm
    • G#m
  • Adicionar à lista

    0 comentários

    Ver todos os comentários

    Conseguiu tocar?

    1 Tocaram 0 Ainda não

    Grave um vídeo tocando Her Sweet Kiss e nos envie!

    00:00 / 00:00
    outros vídeos desta música
    repetir qualidade Automático
    Outros vídeos desta música
    00:00 / 00:00
    Automático

    Cifra Club Pro

    Aproveite o Cifra Club com benefícios exclusivos e sem anúncios
    Cifra Club Pro
    Aproveite o Cifra Club com benefícios exclusivos e sem anúncios
    OK