Cifra Club

Aprenda

Shotgun Rider

Tim McGraw

Tab de baixo: Principal
Verso 1/Partes Instrumentais/Verso 2/Solo da Guitarra:

G|------------------------------------------------5-5-4-4-2-2-0-0------------|
D|5-5-5-5-5-5-7-7-4-4-4-4-4-4-5-7-2-2-2-2-2-2-4-5----------------------------|
A|---------------------------------------------------------------------------|
E|---------------------------------------------------------------------------|

G|------------------------------------------------5-5-4-4-2-2-0-0-2-2-2-2----|
D|5-5-5-5-5-5-7-7-4-4-4-4-4-4-5-7-2-2-2-2-2-2-4-5----------------------------|
A|---------------------------------------------------------------------------|
E|---------------------------------------------------------------------------|

Refrão:

G|------------------------------------------------5-5-4-4-2-2-0-0------------|
D|5-5-5-5-5-5-7-7-4-4-4-4-4-4-5-7-2-2-2-2-2-2-4-5----------------------------|
A|---------------------------------------------------------------------------|
E|---------------------------------------------------------------------------|

G|------------------------------------------------5-5-4-4-2-2-0-0-2-2-2-2-4-4|
D|5-5-5-5-5-5-7-7-4-4-4-4-4-4-5-7-2-2-2-2-2-2-4-5----------------------------|
A|---------------------------------------------------------------------------|
E|---------------------------------------------------------------------------|

G|4-4-5-5-5-5-7-7-7-7--------------------------------------------------------|
D|---------------------------------------------------------------------------|
A|---------------------------------------------------------------------------|
E|---------------------------------------------------------------------------|
Composição de Anthony Smith / Jeffrey Steele / Sherrié Austin
Colaboração e revisão:
  • Marcelo Oliveira
208 exibições

0 comentários

Ver todos os comentários

Conseguiu tocar?

0 Tocaram 0 Ainda não

Grave um vídeo tocando Shotgun Rider e nos envie!

00:00 / 00:00
Outros vídeos desta música
Repetir Qualidade Automático
Outros vídeos desta música
00:00 / 00:00
Automático

Cifra Club Pro

Aproveite o Cifra Club com benefícios exclusivos e sem anúncios
Cifra Club Pro
Aproveite o Cifra Club com benefícios exclusivos e sem anúncios
OK