Cifra Club

The Song I Hate

Toadies

Cifra: Principal (violão e guitarra)
Selo Cifra Club: esta cifra foi revisada para atender aos critérios oficiais da nossa Equipe de Qualidade.
tom: Dm
Intro

E|-------------------------6---6---5---5-------------------------------------|
B|---6---6---5---5---6---6---6---6---6---6-8---8---6---6--------6^5----------|
G|-5---5---6---6---7---7---------------------9---9---7---7----7-----7--------|
D|----------------------------------------------------------8----------------|


[Intro]
Riff x2


[Verse 1]
F
I'm giving up on you..
N.C.
How could I ever call you mine
N.C. (riff)
You're too pretty, too simple, too easy
N.C. (riff)
You're just a waste of time, yeah

F   A  x4

[Verse 2]
N.C.  (riff)
And I won't miss you when you're gone
N.C.  (riff)
You never move me anyway
N.C.  (riff)
I wanna wish you all the best and send you off
N.C.  (riff)
I hope somebody finds you entertaining


[Chorus]
F               A
You're the song I hate
F             A
But I can't let go
F                A
You're the song I hate
F                A
But I can't let go


[Solo]
F     A   D   Bb
F     A   D   Bb

Brief lead over F-A-D-Bb (x2). Listen to the song for timing and bends.
On the last part he bends the C up to D, holds it hits it 8 times, and ends coming back 
the C with a quick bend up and back to the D. If that makes any sense. It's easy if you listen

E|---------------------------------------------------------|
B|-----6b8^6~~------6| B8^6^6^6-----/13B15-(x8)---13b^15^13--|
G|--5----------5-------------------------------------------|
D|---------------------------------------------------------|
A|---------------------------------------------------------|
E|---------------------------------------------------------|


[Verse 3]
F           A             D    Bb                  F
You know it gets so hard,   so hard to keep moving on
A                   D                   Bb
   Through all your petty little changes
F      A              D           Bb          C
   Sometimes I wish I could just     close my eyes
C#m            D       Bb
     Wish you away         yeah


[Chorus]
F             A
You're the song I hate
F             A
But I can't let go
F             A
You're the song I hate
F              A
But I can't let go

F           A
You're the song I
F           A
You're the song I
F           A
You're the song I
F           A
You're the song I hate


[Interlude]
F   A   D   Bb  x2
(riff)


[Bridge]
  Gm               Bbm7
I tried so hard to change you to make you
C                   Dm
Something I could enjoy

E|---------------------------------------------------|
B|------------8-----------------6--------------------|
G|--10\9-------------------7--7----7-----------------|
D|--------10-----------------------------------------|

    Gm                 Bbm7
But you insist on just acting the plaything


E|-------------------------------------------------------|
B|---------6--------------------9------------------------|
G|-------7-------------------10--------------------------|
D|-------------------------------------------------------|

C                  C#m
You're just a toy, just a toy


[Chorus]
F           A
You're the song I hate
F          A
But I can't let go
F           A
You're the song I hate
F          A
But I can't let go

F           A
You're the song I
F           A
You're the song I
F           A
You're the song I
F           A
You're the song that I hate

F           A
You're the song I hate
F          A
But I can't let go
F           A
You're the song I hate
F          A
But I can't let go


[Outro]
F              A
  Yeah
F         A
     The song that I hate
F         A
              Uh!
F           A
You're the song I hate
F
00:00 / 00:00
Outros vídeos desta música
Repetir
Outros vídeos desta música
1 exibições
    • ½ Tom
    • Am
    • Bbm
    • Bm
    • Cm
    • C#m
    • Dm
    • Ebm
    • Em
    • Fm
    • F#m
    • Gm
    • G#m
  • Adicionar à lista

Afinação da cifra

Afinador online

    0 comentários

    Ver todos os comentários

    Entre para o Cifra Club PRO

    Tenha acesso a benefícios exclusivos no App e no Site

    • Chega de anúncios

    • Mais recursos no app do Afinador

    • Atendimento Prioritário

    • Aumente seu limite de lista

    • Ajude a produzir mais conteúdo

    00:00 / 00:00

    Cifra Club Pro

    Aproveite o Cifra Club com benefícios exclusivos e sem anúncios
    Cifra Club Pro
    Aproveite o Cifra Club com benefícios exclusivos e sem anúncios
    OK