Cifra Club

Thick

Tonic

Cifra: Versão 2 (violão e guitarra)
Selo Cifra Club: esta cifra foi revisada para atender aos critérios oficiais da nossa Equipe de Qualidade.
tom: C
E|-5----5-5---5---5---5---5--|-2--2--2----2-2---2---2-2-2-2-2--|
B|-x----x-x---x---x---x---x--|-3--3--3----3-3---x---x-x-x-x-x--|
G|-4----4-4---4---4---4---4--|-x--x--x----x-x---3---3-3h4-4-4--|
D|-2----2-2---2---2---2---2--|-2--2--2----2-2---2---2-2-2-2-2--|
A|-2----2-2---2---2---2---2--|-2--2--2----2-2---2---2-2-2-2-2--|
E|-2----2-2---2---2---2---2--|-2--2--2----2-2---2---2-2-2-2-2--|
Lyrics:  "Oh my sugar she won't bend,"
               "Fly      with   me"
         "On your love she will depend"
               "Fly      with   me"



[Verse]
   Repeat these 4 bars 4x, both guitars
   G                              F            * first time only
E|------------------------------|------------------------------|
B|------------------------------|------------------------------|
G|------------------------------|-------2----2--------------0--|
D|------------------------------|-------0----0--------------0--|
A|-2--2--2-----2-2-2-2--2---2-2-|-0--0--0----0-0-0-0--0---0-0--|
E|-2--2--2-----2-2-2-2--2---2-2-|-0--0--0----0-0-0-0--0---0----|
   
1.      "When you're down and feelin' low"
2.      "Not quite paid for; not quite sold"
3.      "And they all have got you tricked"
4.      "And the world has left you thick"

   C           F   C
E|-----------------------------|----------------------------------|
B|-------2h3---3-3-2-2---------|----------2h3-3-3-3p0-------------|
G|-2--2--2-----2-2-2-2---x-x-2-|-(2)---2--2---2-2-2p0-------------|
D|-2--2--2h4---4-4-2-2---x-x-2-|-(2)---2--2h4-4-4-4p0-------------|
A|-0--0_______________---x-x-0-|-(0)---0--------------0-0-0-0-0-0-|
E|-----------------------------|----------------------0-0-0-0-0-0-|
   ^
  no vocal on this line



[Chorus]  
    Let notes ring

   Both Guitars, play 3x                      
E|---------------------------|---------------------------|---------------------------|-0----0---0-0---0---0--|
B|---------------------------|---------------------------|---------------------------|-0----0---0-0---0---0--|
G|---------------------------|---------------------------|---------------------------|-0----0---0-0---0---0--|
D|---------------------------|---------------------------|---------------------------|-3----3---3-3---3---3--|
A|-5h7-5h7-5-x-0-----2--2----|-5h7-5h7-5-x-0-----2--2----|-5h7-5h7-5-x-0-----2--2----|-3----3---3-3---3---3--|
E|-5h7-5h7-5-x-0-----2--2----|-5h7-5h7-5-x-0-----2--2----|-5h7-5h7-5-x-0-----2--2----|-3----3---3-3---3---3--|
                     "My love,                 she dreams,           when she sleeps with broken faces inside"

E|---------------------------|---------------------------|---------------------------|-0---0---0---0---0-0-|
B|---------------------------|---------------------------|---------------------------|-0---0---0---0---0-0-|
G|---------------------------|---------------------------|---------------------------|-0---0---0---0---0-0-|
D|---------------------------|---------------------------|---------------------------|-3---3---3---3---3-3-|
A|-5h7-5h7-5-x-0-----2--2----|-5h7-5h7-5-x-0-----2--2----|-5h7-5h7-5-x-0-----2--2----|-3---3---3---3---3-3-|
E|-5h7-5h7-5-x-0-----2--2----|-5h7-5h7-5-x-0-----2--2----|-5h7-5h7-5-x-0-----2--2----|-3---3---3---3---3-3-|
                   "Cold water,                  runs deep,                 when she sleeps with broken faces"



Play Verse riff Again

Before 2nd Chorus, Lead Guitar plays (at 2:01)
E|-------------------|-----------------|---------------------|
B|-------------------|-----------------|---------------------|
G|-------------------|-----------------|---------------------|
D|-------------------|-----------------|---------------------|
A|-----------0--2--0-|-----------------|---------------------|
E|-6------6----------|---------4--2--0-|-2-------------------|


Play Chorus again



[Solo]
 
E|--------------------------------|--------------------------------|
B|--2---2---2------2---2---2------|--2---2---2------3---3---3------|
G|--4b6-4b6-4b6----4b6-4b6-4b6----|--4b6-4b6-4b6----5b7-5b7-5b7----|
D|--------------------------------|--------------------------------|
A|--------------------------------|--------------------------------|
E|--------------------------------|--------------------------------|

E|--------------------------------|--------------------------------|
B|--2---2---2------2---2---2------|--2---2---2------3---3---3------|
G|--4b6-4b6-4b6----4b6-4b6-4b6----|--4b6-4b6-4b6----5b7-5b7-5b7----|
D|--------------------------------|--------------------------------|
A|--------------------------------|--------------------------------|
E|--------------------------------|--------------------------------|

E|-----------------------------------|-----------------2-2---------------|
B|-----------------------------------|-----------------2-2-5b7--b7~~-7r5\|
G|-4pb6r4-2-4~---2-4-2---2---------2-|-------2---2-4b6-------------------|
D|---------------------4-----4-2h4---|-4-2h4---4-------------------------|
A|-----------------------------------|-----------------------------------|
E|-----------------------------------|-----------------------------------|

E|-x-x-----------------x-x----------------|-----2-2--------------------------------|
B|-x-x-2----2----2-----x-x-2----2----2----|-2---2-2-2---------------3---3----3-----|
G|-x-x-4b6--4b6--4b6---x-x-4b6--4b6--4b6--|-4b6-----4b6---4b6r4-2-4-5b7-5b7--5b7---|
D|----------------------------------------|----------------------------------------|
A|----------------------------------------|----------------------------------------|
E|----------------------------------------|----------------------------------------|



Rhythm part during solo (play 8x)
E|----------------------------------|---------------------------------|
B|---7---7----7-7----7---7----7-7---|---7---7----7-7---8-8-8-8-8-8-8--|
G|-x-6---6----6-6-x--6---6----6-6---|-x-6---6----6-6---7-7-7-7-7-7-7--|
D|-x-4---4----4-4-x--4---4----4-4---|-x-4---4----4-4---5-5-5-5-5-5-5--|
A|-x-4---4----4-4-x--4---4----4-4---|-x-4---4----4-4---5-5-5-5-5-5-5--|
E|----------------------------------|---------------------------------|
 
 
 
[Bridge]

E|-5----5-5---5---5---5---5--|-2--2--2----2-2---2---2-2-2-2-2--|
B|-x----x-x---x---x---x---x--|-3--3--3----3-3---x---x-x-x-x-x--|
G|-4----4-4---4---4---4---4--|-x--x--x----x-x---3---3-3h4-4-4--| play 4x
D|-2----2-2---2---2---2---2--|-2--2--2----2-2---2---2-2-2-2-2--| same as Intro
A|-2----2-2---2---2---2---2--|-2--2--2----2-2---2---2-2-2-2-2--|
E|-2----2-2---2---2---2---2--|-2--2--2----2-2---2---2-2-2-2-2--|
     1  "Oh my sugar she won't bend,"
     2          "Fly      with   me"
     3  "On your love she will depend"
     4          "Fly      with   me"



[Final Chorus]  
    Let notes ring and play through the fourth bar 2x
 
   Both Guitars, play 3x                      
E|---------------------------|---------------------------|---------------------------|-0----0---0-0---0---0--|
B|---------------------------|---------------------------|---------------------------|-0----0---0-0---0---0--|
G|---------------------------|---------------------------|---------------------------|-0----0---0-0---0---0--|
D|---------------------------|---------------------------|---------------------------|-3----3---3-3---3---3--|
A|-5h7-5h7-5-x-0-----2--2----|-5h7-5h7-5-x-0-----2--2----|-5h7-5h7-5-x-0-----2--2----|-3----3---3-3---3---3--|
E|-5h7-5h7-5-x-0-----2--2----|-5h7-5h7-5-x-0-----2--2----|-5h7-5h7-5-x-0-----2--2----|-3----3---3-3---3---3--|
                     "My love,                 she dreams,           when she sleeps with broken faces inside"

E|---------------------------|---------------------------|---------------------------|-0---0---0---0---0-0-|
B|---------------------------|---------------------------|---------------------------|-0---0---0---0---0-0-|
G|---------------------------|---------------------------|---------------------------|-0---0---0---0---0-0-|
D|---------------------------|---------------------------|---------------------------|-3---3---3---3---3-3-|
A|-5h7-5h7-5-x-0-----2--2----|-5h7-5h7-5-x-0-----2--2----|-5h7-5h7-5-x-0-----2--2----|-3---3---3---3---3-3-|
E|-5h7-5h7-5-x-0-----2--2----|-5h7-5h7-5-x-0-----2--2----|-5h7-5h7-5-x-0-----2--2----|-3---3---3---3---3-3-|
                   "Cold water,                  runs deep,                 when she sleeps with broken faces"

E|-0---0---0---0---0-0--|
B|-0---0---0---0---0-0--|
G|-0---0---0---0---0-0--|
D|-3---3---3---3---3-3--|
A|-3---3---3---3---3-3--|
E|-3---3---3---3---3-3--|



[Ending]

   Rhythm
E|---5-5---5---5-5---5-5---5---5-5-|-----------------2-2-2-2-2-2-2--|
B|---x-x---x---x-x---x-x---x---x-x-|-3-3---3---3-3---x-x-x-x-x-x-x--|
G|---4-4---4---4-4---4-4---4---4-4-|-4-4---4---4-4---3-3-3-3h4-4-4--| play 6x
D|---2-2---2---2-2---2-2---2---2-2-|-2-2---2---2-2---2-2-2-2-2-2-2--| similarly
A|---2-2---2---2-2---2-2---2---2-2-|-2-2---2---2-2---2-2-2-2-2-2-2--|
E|---2-2---2---2-2---2-2---2---2-2-|-2-2---2---2-2---2-2-2-2-2-2-2--|
 |
 | Lead
E|---------------------------------|--------------------------------|
B|---------------------------------|--------------------------------| play 6x
G|---------------------------------|-----------------3-3-3-3/4-4-4--| similarly
D|---2-2---2---2-2---2-2---2---2-2-|-2-2---2---2-2---x-x-x-x---x-x--|
A|---2-2---2---2-2---2-2---2---2-2-|-2-2---2---2-2---1-1-1-1/2-2-2--|
E|---2-2---2---2-2---2-2---2---2-2-|-2-2---2---2-2------------------|
 
  Ending has some variations to it in repeats but this is the basic riff


|Key:
===================
| /  slide up
| \  slide down
| h  hammer-on
| p  pull-off
| ~  vibrato
| x  Mute note (or rake)
| b  bend (bends with vibrato bar indicated)
| r  release bend
Outros vídeos desta música
    1 exibições
      • ½ Tom
      • A
      • Bb
      • B
      • C
      • Db
      • D
      • Eb
      • E
      • F
      • F#
      • G
      • Ab
    • Adicionar à lista

    Afinação da cifra

    Afinador online

      0 comentários

      Ver todos os comentários

      Entre para o Cifra Club PRO

      Tenha acesso a benefícios exclusivos no App e no Site

      • Chega de anúncios

      • Badges exclusivas

      • Mais recursos no app do Afinador

      • Atendimento Prioritário

      • Aumente seu limite de lista

      • Ajude a produzir mais conteúdo

      Cifra Club Pro

      Aproveite o Cifra Club com benefícios exclusivos e sem anúncios
      Cifra Club Pro
      Aproveite o Cifra Club com benefícios exclusivos e sem anúncios
      Ops (: Contenido disponible sólo en portugués.
      OK