Cifra Club

Black Friday Cifra Club

Pra Tocar No Manto

Trazendo a Arca

Cifra: Versão 4 (violão e guitarra)
tom: D
E |------------------------|--------------------------------------|
B |------------------------|--10h-12h-13-------------12brb--------|
G |--12b--------14b--------|--------------------------------------|
D |------------------------|--------------------------------------|
A |------------------------|--------------------------------------|
E |------------------------|--------------------------------------|

-----------------------------|------------------------------------|
-----------12h-13h-15--------|--13h-15h-15brb-------------15h-17h-|
-----------------------------|------------------------------------|
-----------------------------|------------------------------------|
-----------------------------|------------------------------------|
-----------------------------|------------------------------------|

--------15-------------------------|----------------------------------------|
--18--------15h-17-15br----15br----|--13h--15----15br--13-15--------13p-12h-|
-----------------------------------|----------------------------------------|
-----------------------------------|----------------------------------------|
-----------------------------------|----------------------------------------|
-----------------------------------|----------------------------------------|

------------------------------------------------|
--10--------12p-11h-12/-------------------------|
---------------------------14-14-14-14-12-12-12-|
------------------------------------------------|
------------------------------------------------|
------------------------------------------------|

-------------------------------15b-----------------|--15-------------------|
---------------------------------------------------|------------15b--------|
--12-10-10-10-10-9--9--9--9------------------------|-----------------------|
---------------------------------------------------|-----------------------|
---------------------------------------------------|-----------------------|
---------------------------------------------------|-----------------------|

---------------------13----------------|------------------------------|
--13h-15-15brb-----------15br----15----|--13--------15h-17h-18--------|
---------------------------------------|------------------------------|
---------------------------------------|------------------------------|
---------------------------------------|------------------------------|
---------------------------------------|------------------------------|

--15------------------------|----------------------------------------|
------17----17-15-13--------|--15br--------13p-12p-10----------------|
----------------------------|----------------------------------------|
----------------------------|----------------------------------------|
----------------------------|----------------------------------------|
----------------------------|----------------------------------------|

--------------------------------------------------------15-|
-----------------------------------------------15-17-18----|
--------------------------------------14-15-17-------------|
-----------------------------14-15-17----------------------|
--------------------13-15-17-------------------------------|
-----------13-15-17----------------------------------------|

--17-18-17-18-20---22b----------------|-----------|-----------||
--------------------------------------|-----------|-----------||
--------------------------------------|-----------|-----------||
--------------------------------------|-----------|-----------||
--------------------------------------|-----------|-----------||
--------------------------------------|-----------|-----------||

00:00 / 00:00
Outros vídeos desta música
Repetir
Outros vídeos desta música
Composição de Luiz Arcanjo
Colaboração e revisão:
  • Ivanildo Moreira
3.548 exibições
    • ½ Tom
    • A
    • Bb
    • B
    • C
    • Db
    • D
    • Eb
    • E
    • F
    • F#
    • G
    • Ab
  • Adicionar à lista

    0 comentários

    Ver todos os comentários

    Entre para oCifra Club PRO

    Tenha acesso a benefícios exclusivos no App e no Site

    • Chega de anúncios

    • Prioridade de compra em lançamentos

    • Mais recursos no app do Afinador

    • Atendimento Prioritário

    • Descontos nos produtos Cifra Club

    • Ajude a produzir mais conteúdo

    00:00 / 00:00

    Cifra Club Pro

    Aproveite o Cifra Club com benefícios exclusivos e sem anúncios
    Cifra Club Pro
    Aproveite o Cifra Club com benefícios exclusivos e sem anúncios
    OK