Cifra Club

Shy That Way

Tristan Prettyman

Cifra: Principal (violão e guitarra)
tom: G
Tuning: Standard
Transcribed by Soch Hean

Natural Harmonic Intro:
|--x---x---x---x-x-x-0------x------x---x------------|
|--x---x---x---x-x-x-0------x-15~--x---x------------|
|------x-------x------x---x-x-x-------------------x------x---x------------|
|------x-------x------x---x-x-x-------------------x------x---x------------|
|------x-------x------x---x-x-x-------------------x------x---x------------|
|------x-------x------x---x-x-x-------------------x------x---x------------|

|---------x---x---x-0--------------------|
|---------x------x---x-0-------15~-\--------|
|--------------------x------x---x---------------------------------|
|--------------------x------x---x---------------------------------|
|--------------------x------x---x---------------------------------|
|--------------------x------x---x---------------------------------|

Intro:
|------------7\-x------2---------------------------x-0----x--0----2-x-0---|
|----8-------8\-x--3-----3-----3---------1-------3-x-1--1-x--1----3-x-0---|
|-7--7----7-----x--2---------2---2----0--0----0--0-x-0----x----0----x-----|
|-9-----9-------x--0-------0-------0--2-----2------x------x---------x-----|
|---------------x---------------------3------------x------x---------x-----|
|-0-------------x----------------------------------x------x---------x-----|

|------------7\-x------x------3--x--------------x-0----x--0----2-x-0---|
|----8-------8\-x--3---x---3--3--x------1-----3-x-1--1-x--1----3-x-0---|
|----7----7-----x--2---x---------x-0----0-----0-x-0----x----0----x-----|
|-------9-------x--0---x-0-------x-2--------2---x------x---------x-----|
|---------------x------x---------x---3----3-----x------x---------x-----|
|-0-------------x------x---------x--------------x------x---------x-----|

|------------7\-x------2---------------------------x-0----x--0----2-x-0---|
|----8-------8\-x--3-----3-----3---------1-------3-x-1--1-x--1----3-x-0---|
|----7----7-----x--2---------2---2----0--0----0--0-x-0----x----0----x-----|
|-------9-------x--0-------0-------0--2-----2------x------x---------x-----|
|---------------x---------------------3------------x------x---------x-----|
|-0-------------x----------------------------------x------x---------x-----|

|------------7\-x------x------3--x--------------x-0----x--0----2-x--0----|
|----8-------8\-x--3---x---3--3--x------1-----3-x-1--1-x--1----3-x--0----|
|----7----7-----x--2---x---------x-0----0-----0-x-0----x----0----x-------|
|-------9-------x--0---x-0-------x-2--------2---x------x---------x-------|
|---------------x------x---------x---3----3-----x------x---------x-------|
|-0-------------x------x---------x--------------x------x---------x-------|

Verse:
|-----------7\-x----x-------x-----x-------x----x-0---2-x-0------|
|-----------8\-x-3--x-----3-x-1---x-----1-x-1--x-1---3-x-0------|
|----7---7-----x-2--x---2---x-0---x---0---x-0--x---0---x--------|
|------9-------x-0--x-0-----x-----x-------x----x-------x--------|
|--------------x----x-------x---3-x-3-----x----x-------x--------|
|-0------------x----x-------x-----x-------x----x-------x--------| (x3)

|-----------7\-x----x-------x-----x-------x----x-------x-----x--|
|-----------8\-x-3--x-----3-x-1---x-----1-x-1--x-----1-x-1---x--|
|----7---7-----x-2--x---2---x-0---x---0---x-0--x---0-0-x-0---x--|
|------9-------x-0--x-0-----x-----x-------x----x-------x-----x--|
|--------------x----x-------x---3-x-3-----x----x-3-----x---3-x--|
|-0------------x----x-------x-----x-------x----x-------x-----x--|

Chorus:
|-------x----x------------------x----x------7-x------x----|
|-------x----x----------------8-x-7--x----7---x-1----x----|
|-3---3-x-2--x--------------7---x-7--x--7-----x-0----x----|
|-2---2-x-1--x------------9-----x-7--x--------x------x----|
|---3---x-2--x--2---------------x----x--------x----3-x----|
|-------x----x-----3--0---------x----x--------x------x----|  (x3)

|-------x----x------------------x----x---x---|
|-------x----x----------------8-x-8--x---x---|
|-3---3-x-2--x--------------7---x-7--x---x---|
|-2---2-x-1--x------------9-----x-9--x---x---|
|---3---x-2--x--2---------------x----x---x---|
|-------x----x-----3--0---------x----x---x---|

Verse 2:
|-----------7\-x----x-------x-----x-------x----x-------x-0------|
|-8---------8\-x-3--x-----3-x-1---x-----1-x-3--x-----3-x-0------|
|-7--7---7-----x-2--x---2---x-0---x---0---x-0--x---0---x--------|
|-9----9-------x-0--x-0-----x-----x-------x----x-------x--------|
|--------------x----x-------x---3-x-3-----x----x-3-----x--------|
|--------------x----x-------x-----x-------x----x-------x--------| 

|-----------7\-x----x-------x-----x-------x----x-0---2-x-0------|
|-----------8\-x-3--x-----3-x-1---x-----1-x-3--x-1---3-x-0------|
|----7---7-----x-2--x---2---x-0---x---0---x-0--x---0---x--------|
|------9-------x-0--x-0-----x-----x-------x----x-------x--------|
|--------------x----x-------x---3-x-3-----x----x-------x--------|
|-0------------x----x-------x-----x-------x----x-------x--------| 

|-----------7\-x----x-------x-----x---------x---0-x--------2-x-0---|
|-----------8\-x-3--x-----3-x-1---x-0h1p0---x-3---x-0h1p0--3-x-0---|
|----7---7-----x-2--x---2---x-0---x-------0-x-0---x----------x-----|
|------9-------x-0--x-0-----x-----x---------x-----x----------x-----|
|--------------x----x-------x---3-x---------x-----x----------x-----|
|-0------------x----x-------x-----x---------x-----x----------x-----| 

|-----------7\-x----x-------x-----x-------x----x-------x-----x--|
|-----------8\-x-3--x-----3-x-1---x-----1-x-1--x-----1-x-1---x--|
|----7---7-----x-2--x---2---x-0---x---0---x-0--x---0-0-x-0---x--|
|------9-------x-0--x-0-----x-----x-------x----x-------x-----x--|
|--------------x----x-------x---3-x-3-----x----x-3-----x---3-x--|
|-0------------x----x-------x-----x-------x----x-------x-----x--|

Chorus:
|-------x----x------------------x----x------7-x------x----|
|-------x----x----------------8-x-7--x----7---x-1----x----|
|-3---3-x-2--x--------------7---x-7--x--7-----x-0----x----|
|-2---2-x-1--x------------9-----x-7--x--------x------x----|
|---3---x-2--x--2---------------x----x--------x----3-x----|
|-------x----x-----3--0---------x----x--------x------x----| 

|-------x----x------------------x-7~-x------0-x------x----|
|-------x----x----------------8-x-8~-x--------x-1----x----|
|-3---3-x-2--x--------------7---x----x----7---x-0----x----|
|-2---2-x-1--x------------9-----x----x--9-----x------x----|
|---3---x-2--x--2---------------x----x--------x----3-x----|
|-------x----x-----3--0---------x----x--------x------x----|

|-------x----x------------------x----x------7-x------|
|-------x----x----------------8-x-7--x----7---x-1----|
|-3---3-x-2--x--------------7---x-7--x--7-----x-0----|
|-2---2-x-1--x------------9-----x-7--x--------x------|
|---3---x-2--x--2---------------x----x--------x----3-|
|-------x----x-----3--0---------x----x--------x------| 

|---------x----x------------------x----x----|
|---------x----x----------------8-x-8--x----|
|-3-----3-x-2--x--------------7---x-7--x----|
|-2-----2-x-1--x------------9-----x-9--x----|
|---3-3---x-2--x--2---------------x----x----|
|---------x----x-----3--0---------x----x----|

Guitar Solo:
|---------------------------------------------------------------|
|------------------------------------------0-0-----8--5s8~------|
|-7s9=s7-----------------------------------0-0--7---------------|
|--------9-7--5-7----5-7--4~-4h5h7-----5------------------------|
|------------------7---------------5-7---7----------------------|
|---------------------------------------------------------------|

|------------------------------------------------------------------------------|
|------------------------------------------0-0------8s12--12--------12---10h12-|
|-7s9-7------------------------------------0-0--7-7-------12-----12------------|
|-------9-7--5-7----5-7--4~--4h5h7-----5----------------------12---------------|
|-----------------7----------------5-7---7-------------------------------------|
|------------------------------------------------------------------------------|

Bridge:
|---x-------x----x-------x-----x-------x---x-------x----|
|---x-------x----x-------x--8--x-----8-x-7-x-----7-x----|
|-5-x-----5-x--7-x-----7-x--7--x---7---x-7-x---7---x----|
|-5-x-----5-x--7-x---7---x--9--x-------x---x-------x----|
|-3-x-3-----x--5-x-5-----x-----x-7-----x-5-x-5-----x----|
|---x-------x----x-------x-----x-------x---x-------x----|

|---x-------x----x-------x-----x-------x---x--x-|
|---x-------x----x-------x--8--x-----8-x-8-x--x-|
|-5-x-----5-x--7-x-----7-x--7--x---7---x-7-x--x-|
|-5-x-----5-x--7-x---7---x--9--x-------x---x--x-|
|-3-x-3-----x--5-x-5-----x-----x-7-----x-7-x--x-|
|---x-------x----x-------x-----x-------x---x--x-|

Chorus:
|--------------x----x----------x-------x----x------7-x-------|
|--------------x----x----------x-----8-x-7--x----7---x-1-----|
|-----3--3---3-x-2--x----------x---7---x-7--x--7-----x-0-----|
|---2----2---2-x-1--x----------x-9-----x-7--x--------x-------|
|-3--------3---x-2--x--2-------x-------x----x--------x----3--|
|--------------x----x-----3--0-x-------x----x--------x-------|

|---------x----x----------x-------x----x------7-x-------|
|---------x----x----------x-----8-x-7--x----7---x-1-----|
|-3-----3-x-2--x----------x---7---x-7--x--7-----x-0-----|
|-2-----2-x-1--x----------x-9-----x-7--x--------x-------|
|---3-3---x-2--x--2-------x-------x----x--------x----3--|
|---------x----x-----3--0-x-------x----x--------x-------|

|---------x----x----------x-------x----x------7-x-------|
|---------x----x----------x-----8-x-7--x----7---x-1-----|
|-3-----3-x-2--x----------x---7---x-7--x--7-----x-0-----|
|-----2---x-1--x----------x-9-----x-7--x--------x-------|
|---3-----x-2--x--2-------x-------x----x--------x----3--|
|---------x----x-----3--0-x-------x----x--------x-------|

Outro:                           natural harmonic
|---------x----x-------------------------|
|---------x----x-------------------------|
|-3-----3-x-2--x-------------------------|
|-2-----2-x-1--x-----------------------------|
|---3-3---x-2--x--2--------------------------|
|---------x----x-----3--0--------------------|

Legend:
s - slide
h - hammeron
p - pulloff
 - natural harmonic

X's mean tap the guitar body, (Think of Extreme's "More Than Words")

_____________________________________________________________________

Shy That Way 

Em7
you know your stunning
Bm
absolutely stunning
          C
and I'm running always running

Em7
and now I'm crying
Bm
you know only cause I'm caring
            C
and if you were more daring maybe you'd stop staring
Em7                Bm
and come over and talk to me
C
and tell me about how you've been waiting patiently
        
Em7                          Bm
and how you tried but I just turned away
      C                                              C  B7
and I'll say, "yeah well you know, I'm shy that way"

          Em7
shy that way
C      B7           Em7
maybe I'm shy that way

(Em7 Bm C)
you know she's stunning
she's absolutely stunning
but she's always running
but ill catch up to her...
the way she keeps her distance
keepin my interest
so ill keep it consistent
maybe someday, someway, somehow, sometime
we'll get together and we'll break it down
and I'll ask, "why you gotta be so shy, why you gotta be that way?"
                                     C   B7
well maybe, baby, I like it that way

          Em7
shy that way
C     B7                   Em7
maybe I, like it shy that way
maybe I love you so shy that way

Ok, I'm shy that way...

Solo ( Am Bm Em D Am Bm Em)

(Em7 Bm C)
there's always too much talking
and I wanna just keep walking
and I keep staring, baby, keep staring
though I may not know the right things to say
                                C B7
I'll get it out to you one day

           Em7
shy that way (shy that way)

C                        B7
do you like it? do you like it when I'm shy
Em7             C                       B7
yes I like it, yes I like it, when your shy
           Em7  
shy that way
Composição de Jason Mraz / Tristan Prettyman
Colaboração e revisão:
  • fellipe coelho
2.893 exibições
    • ½ Tom
    • A
    • Bb
    • B
    • C
    • Db
    • D
    • Eb
    • E
    • F
    • F#
    • G
    • Ab
  • Adicionar à lista

    0 comentários

    Ver todos os comentários

    Conseguiu tocar?

    0 Tocaram 0 Ainda não

    Grave um vídeo tocando Shy That Way e nos envie!

    00:00 / 00:00
    Outros vídeos desta música
    Repetir Qualidade Automático
    Outros vídeos desta música
    00:00 / 00:00
    Automático

    Cifra Club Pro

    Aproveite o Cifra Club com benefícios exclusivos e sem anúncios
    Cifra Club Pro
    Aproveite o Cifra Club com benefícios exclusivos e sem anúncios
    OK