Cifra Club

I Dont Wanna Be Me

Type O Negative

Cifra: Principal (violão e guitarra)
Selo Cifra Club: esta cifra foi revisada para atender aos critérios oficiais da nossa Equipe de Qualidade.
tom: F#


Album: Life Is Killing Me
Transcribed by: Liam Doorley
Email: *

tuning low-high - a-e-a-d-g-b

Note: I'm still working on the solo, hard to hear cuz it's not real loud...email
me if you want to see what i have so far.

Intro part 1 (guitar 2)
------------------------------------------------------------------------------|
------------------------------------------------------------------------------|
------------------------------------------------------------------------------|
------------------------------------------------------------------------------|
-00000000000000000000000000000000---------------------------------------------|
-00000000000000000000000000000000---------------------------------------------|
 pm.............. volume swell

Intro part 2 (guitar 2)
------------------------------------------------------------------------------|
------------------------------------------------------------------------------|
------------------------------------------------------------------------------|
-----------------6666666666666666----------------66---------------------------|
-77777777444444444444444444440000777777774444444444---------------------------|
-7777777744444444----------------7777777744444444-----------------------------|
 ................................................

Riff 1 (guitar 2)
------------------------------------------------------------------------------|
------------------------------------------------------------------------------|
------------------------------------------------------------------------------|
-----------------6666666666666666---------------------------------------------|
-77777777444444444444444444440000---------------------------------------------|
-7777777744444444-------------------------------------------------------------|

Riff 1 (guitar 1 with chorus and wah)
------------------------------------------------------------------------------|
-9-----9-----9------------9-----9---------------------------------------------|
---9-----9-----9/8-/9//-----9-----9/8/4//x////-pick scrape--------------------|
-----------------------------------------x////--------------------------------|
------------------------------------------------------------------------------|
------------------------------------------------------------------------------|

Verse (guitar 2 while guitar 1 plays pick scrapes and feedback in background)
------------------------------------------------------------------------------|
------------------------------------------------------------------------------|
------------------------------------------------------------------------------|
-----------------6666666666666666---------------------------------------------|
-77777777444444444444444444440000---------------------------------------------|
-7777777744444444-------------------------------------------------------------|
 ................................
Chorus (both)
------------------------------------------------------------------------------|
------------------------------------------------------------------------------|
------------------------------------------------------------------------------|
-----------------6666666666666666---------------------------------------------|
-77777777444444444444444444440000---------------------------------------------|
-7777777744444444-------------------------------------------------------------|

Pre-bridge (both)
------------------------------------------------------------------------------|
------------------------------------------------------------------------------|
-6-8-9-1113131313-------------------------------------------------------------|
-x-x-x-x-x-x-x-x--------------------------------------------------------------|
-4-6-7-9-11111111-------------------------------------------------------------|
------------------------------------------------------------------------------|

End of bridge (guitar 1)
------------------------------------------------------------------------------|
------------------------------------------------------------------------------|
------------------------------------------------------------------------------|
--x////////-------------------------------------------------------------------|
-0x////////-pick scrape-------------------------------------------------------|
-0x////////-------------------------------------------------------------------|

Song structure
Intro part 1
Intro part 2
Riff 1
Verse
Chorus
Riff 1
Verse
Pre-bridge
Bridge (no guitar)
End of bridge
Solo
Bridge
Chorus
Pre-bridge
Outro is guitar 2 playing chorus and pre-bridge while guitar 1 plays riff 1.

That's all.
Outros vídeos desta música
    7.346 exibições
      • ½ Tom
      • A
      • Bb
      • B
      • C
      • Db
      • D
      • Eb
      • E
      • F
      • F#
      • G
      • Ab
    • Adicionar à lista

    Afinação da cifra

    Afinador online

      0 comentários

      Ver todos os comentários

      Entre para o Cifra Club PRO

      Tenha acesso a benefícios exclusivos no App e no Site

      • Chega de anúncios

      • Badges exclusivas

      • Mais recursos no app do Afinador

      • Atendimento Prioritário

      • Aumente seu limite de lista

      • Ajude a produzir mais conteúdo

      Cifra Club Pro

      Aproveite o Cifra Club com benefícios exclusivos e sem anúncios
      Cifra Club Pro
      Aproveite o Cifra Club com benefícios exclusivos e sem anúncios
      OK