Cifra Club

Dream About Your Love

Vanguart

Cifra: Principal (violão e guitarra)
Selo Cifra Club: esta cifra foi revisada para atender aos critérios oficiais da nossa Equipe de Qualidade.
tom: C
(intro) G C9

(violão 1)

E|--3------------------8------------7---------------------
B|--3------------------8------------8---------------------
G|--0--4-vezes---------0--3-vezes---0---1-vez------------- 
D|--0------------------0------------0---------------------
A|--2------------------7------------0---------------------
E|--3------------------8------------7---------------------

(violão 2 - solo)

E|---------3-------/8-8--8-8-8p7---------------
B|-------3---------/8-8--8-8-8p8---------------
G|--2/4----------------------------------------
D|---------------------------------------------
A|---------------------------------------------
E|---------------------------------------------

E|---------3-------/8-8--8-8-8p-----8~---------
B|-------3---------/8-8--8-8-8p10---8~---------
G|--2/4----------------------------------------
D|---------------------------------------------
A|---------------------------------------------
E|---------------------------------------------

   G                  C9
I gazed a forgivelessness star
  G                C9
Thinkin' about my life
 G           C9             G       C9
I've been so old and young nowadays

G               C9
  Fell in love twice
G                   C9
I found love three times
   G         C9  G    C9
I found another world

     Bm                C9
The boys downtown are selling birds
Bm                C9
  Selling you and I

                  G      C9  G
They said you've gone away
   C9                 G   C9  G  C9
I didn't believe'em then

   G                C9
My eyes became a strange old led
   G             C9
A red bleach in my sight
G                 C9       G       C9        Em   Bm  Em  Bm
  And I dreamed about the world I was gonna find

    Em                       Bm
I opened my eyes, I checked out the time
   Em                       Bm
I heard my name, there was no one to blame
    Em                                  Bm
I thought about the next shoes, And it wrecked my mind
    Em                         Bm
I thought about the day I was not gonna find..

               G        C9  G
Then you came back again
   C9             G  C9  G  C9
I felt so happy then

 G                  C9
Look, our cats and dogs
      G                     C9   G
Are lying together on the grass field
       C9              G
They smoke the same cigar
  C9       G        C9  G  C9                 Em  Bm  Em  Bm
Dreaming about the one          the one they love

     Em                         Bm
So dream, babe, babe about the one you love
      Em                        Bm
This way you're gonna fill the world with love
      Em                             Bm
This way you're gonna face all your days
             Em  Bm
With certainlies

 Em                      Bm
Babe, babe, babe dream about your love.
00:00 / 00:00
Outros vídeos desta música
Repetir
Outros vídeos desta música
2.290 exibições
    • ½ Tom
    • A
    • Bb
    • B
    • C
    • Db
    • D
    • Eb
    • E
    • F
    • F#
    • G
    • Ab
  • Adicionar à lista

Afinação da cifra

Afinador online

    0 comentários

    Ver todos os comentários

    Entre para o Cifra Club PRO

    Tenha acesso a benefícios exclusivos no App e no Site

    • Chega de anúncios

    • Mais recursos no app do Afinador

    • Atendimento Prioritário

    • Aumente seu limite de lista

    • Ajude a produzir mais conteúdo

    00:00 / 00:00

    Cifra Club Pro

    Aproveite o Cifra Club com benefícios exclusivos e sem anúncios
    Cifra Club Pro
    Aproveite o Cifra Club com benefícios exclusivos e sem anúncios
    OK