Cifra Club

O Que a Gente Podia Ser

Vanguart

Cifra: Principal (violão e guitarra)
exibições 9.015
Tom: F
Intro: C  Fm  C  Fm  C  Fm

C/G    Fm
Fui sozinho
C/G     Fm
O meu caminho
C/G         Fm
Quem ia cuidar de mim
         C/G         Fm
Melhor que eu?

   C/G  Fm
Seu fatalismo
C/G    Fm
Na hora errada
C/G         Fm
A gente soube mais
                   C/G                Fm
Quando não sabia nada
C/G       Fm
Dei a partida
C/G         Fm
Olhando o cristo
C/G         Fm
Ao meio-dia
                      C/G     Fm
O que eu ia fazer,
          C/G                 Fm
O que eu iria fazer?
   Gm        D7    Eb
E nas ondas do mar
         D7
Eu vi você voltar
 G    F      Eb
E nas ondas do mar
  D7                Gm    Bb Eb D7
Eu desapareci...
  C/G          Fm
Parece uma piada
C/G         Fm
Ontem fez dez anos
C/G          Fm
Desde a última vez
       C/G                 Fm
Que eu te olhei nos olhos
              C/G        Fm
E não tem remédio
       C/G       Fm
E não tem cigarro
    C/G         Fm
Que acalme o diabo de pensar
                  C/G
O que a gente podia ser
  Fm                  C/G                Fm
O que a gente podia ser
  C/G Fm
 (talvez dentro do mar)
 Gm   D7 Eb
E nas ondas do mar
    D7
Eu vi voce voltar
Gm     F       Eb
E nas ondas do mar
D7
Eu desapareci... ( Gm  Bb  Eb  D7 )
 G        C   Fm
(o tempo eu esperei)

Solo:

E|----------------------------------------------------|
B|-8-8-8-5-5-5-6-6-6-------5-5-5-6-5---6-5---8b9r8----|
G|-------------------5-5-5-----------7-----7----------|
D|----------------------------------------------------|
A|----------------------------------------------------|
E|----------------------------------------------------|

E|-3--1--3----4---6---6---7---7---8---8---8---8---10---10---12-------|
B|-5--3--5--6---6---6---6---6---6---6---6---6---6----6----6------12~-|
G|-------------------------------------------------------------------|
D|-------------------------------------------------------------------|
A|-------------------------------------------------------------------|
E|-------------------------------------------------------------------|

C/G Fm
Talvez dentro do mar
C/G Fm
Talvez noutro lugar.
Acordes para:
    Composição: VanguartColaboração e revisão:
    • Felipe Silva
    • Marcos Paccanaro
    • João Marcos

    0 comentários

    mostrar mais comentários

    Conseguiu tocar?

    2tocaram0ainda não

    Grave um vídeo tocando O Que a Gente Podia Ser e mande pra gente!

    00:00 / 00:00
    outros vídeos desta música
    repetirqualidadeAutomático
    Outro vídeos desta música
      00:00 / 00:00
      OK