Cifra Club

Sempre Que Eu Vou Lá

Vanguart

Cifra: Principal (violão e guitarra)
Selo Cifra Club: esta cifra foi revisada para atender aos critérios oficiais da nossa Equipe de Qualidade.
tom: E
[Riff]

E|---------------------|
B|---------------------|
G|---------------------|
D|---------------------|
A|---2--4--2-----------|
E|------------4--2--0--|

E          G#m7     C#m
Sempre que eu vou lá
E             G#m7      C#m
É pensando em te encontrar
E          G#m7     C#m
Ainda não te conheci
E          G#m7      C#m
Mas sei que me esperas lá

E          G#m7      C#m
Sempre que eu estou lá
E                 G#m7   C#m
Queria que estivesses também
E          G#m7              C#m
Enfim nova vida, Enfim nova casa
D                   C#m
Contanto que estejas lá

B
  Eu vou pisar
A            C#m
  Nos pedais e fugir
B
  Eu vou andar
A           C#m
  A cidade chegar
            B7
Até as tuas mãos

Tranquei o meu quarto e fui
Nunca mais estive ali
Um só segundo e eu soube de tudo
Aquelas eram as tuas mãos

[Solo] E  G#m7  C#m

E|----------------------------------------------------------------------------------------|
B|----------------------------------------------------------------------------------------|
G|----------------------------------------------------------------------------------------|
D|------------------------------------------------6---------------------------------------|
A|---------------2-2-2-4--4-6--7-6-4~---6-7-6-7-9----6--7/9-6--7-6-4-6-6p4~--2-4-2-----2--|
E|-0-0-0-2--2-4--------------------------------------------------------------------4-2----|

Vamos pisar
Nos pedais e fugir
Vamos amar
Como nunca ninguém
Jamais amou

Sempre que eu estou lá
Sempre que eu estou lá
Sempre que é você
E sempre que sou eu
Outros vídeos desta música
    12.034 exibições
      • ½ Tom
      • A
      • Bb
      • B
      • C
      • Db
      • D
      • Eb
      • E
      • F
      • F#
      • G
      • Ab
    • Adicionar à lista

    Afinação da cifra

    Afinador online

      0 comentários

      Ver todos os comentários

      Entre para o Cifra Club PRO

      Tenha acesso a benefícios exclusivos no App e no Site

      • Chega de anúncios

      • Badges exclusivas

      • Mais recursos no app do Afinador

      • Atendimento Prioritário

      • Aumente seu limite de lista

      • Ajude a produzir mais conteúdo

      Cifra Club Pro

      Aproveite o Cifra Club com benefícios exclusivos e sem anúncios
      Cifra Club Pro
      Aproveite o Cifra Club com benefícios exclusivos e sem anúncios
      OK