Cifra Club

Isaías 9 (solo)

Victor Pradella

Cifra: Principal (violão e guitarra)
Selo Cifra Club: esta cifra foi revisada para atender aos critérios oficiais da nossa Equipe de Qualidade.
tom: G
E|---------------------------------------------------------------------------|
B|-----------------------------10-10~--------------12--------10~-------------|
G|----7-9---11\9---7---9/11~------------11---9/11-------11---------11~-------|
D|-9-------------------------------------------------------------------------|
A|---------------------------------------------------------------------------|
E|---------------------------------------------------------------------------|

E|---------10-10\9-----------------------------------------------------------|
B|-10h12------------10-------10h12~--10--------15/16-16~---16/18-18~----15---|
G|----------------------11~---------------11~--------------------------------|
D|---------------------------------------------------------------------------|
A|---------------------------------------------------------------------------|
E|---------------------------------------------------------------------------|

E|---------------------------------------------------------------------------|
B|-15----------------------------15~\14~---------12---14--15--12~--10-12~----|
G|-14h16--14-----------------------------------------------------------------|
D|------------16\14--12--14/16~------------10/12------14--16-----------------|
A|---------------------------------------------------------------------------|
E|---------------------------------------------------------------------------|

E|---------------------------------------------------------------------------|
B|------------------14/15--14~-------------------------12------15--14------12|
G|--------------12----------------------11------11-14------11--11------14----|
D|-------11/12-------------------12-14------14-------------------------------|
A|-9-9~----------------------------------------------------------------------|
E|---------------------------------------------------------------------------|

E|---------------------------------------------------------------------------|
B|--------------------------------------------12------10~--------------------|
G|----7--9/11~--11\9---7-9~---7-9/11~---9/11------11--------11\9--7--9/11----|
D|-9-------------------------------------------------------------------------|
A|---------------------------------------------------------------------------|
E|---------------------------------------------------------------------------|

E|---------------------------------------------------------------------------|
B|-10h12--10~--------------10h12--10~----------------------------------------|
G|---------------11-11~-----------------11-11~-------9-7~--------------------|
D|------------------------------------------------9--------------------------|
A|---------------------------------------------------------------------------|
E|---------------------------------------------------------------------------|

E|---------------------------------------------------------------------------|
B|--------------------------------------14--15/17--17~---15-15---------------|
G|---7-9-7~----------6--6-7--9----14--------16/18---------------16-16~-------|
D|-9--------9p7-9~---7-------11/14-------------------------------------------|
A|---------------------------------------------------------------------------|
E|---------------------------------------------------------------------------|

E|---------------------------------------------------------------------------|
B|-15------------------------------------------------------------------------|
G|-14/16--14-------------------14-14~----------------------------------------|
D|------------16\14--12-14/16----------16\14--12------12~-----12-14/16~------|
A|------------------------------------------------14-------14----------------|
E|---------------------------------------------------------------------------|

E|---------------------------------------------------------------------------|
B|----------------------14/15--14/15~--14-12-10-12~--10\7~-------------------|
G|---16-14-16-14~--11~-------------------------------------------------------|
D|--x------------------------------------------------------------------------|
A|-x-------------------------------------------------------------------------|
E|---------------------------------------------------------------------------|

E|---------------------------------------------------------------------------|
B|-3b4--------------------3~-------------------------------------------------|
G|----------4p2-4~----2-4----4--2-4-2~---------------------------------------|
D|------------------4-------------------5\4--2--3\2--0-2/3-2/3--3-0-3-0------|
A|----------------------------------------------------------------------2~---|
E|---------------------------------------------------------------------------|

E|------------------7-10-7/9~--7----7----------------------------------------|
B|-----7~------7-10--------------10---7~----7-10-10--7-9/10-10~--------------|
G|-7-9-----7/9----------------------------9----------------------------------|
D|---------------------------------------------------------------------------|
A|---------------------------------------------------------------------------|
E|---------------------------------------------------------------------------|

E|--------------------10-------------10-12/14--14b15--15~r14--14~------------|
B|------12----10-12~-----12~---10/12-----------------------------------------|
G|-9/11----11----------------------------------------------------------------|
D|---------------------------------------------------------------------------|
A|---------------------------------------------------------------------------|
E|---------------------------------------------------------------------------|

E|-14/17-17~--14-12-14-14~---17/19-19~--17--------17-19-19--17---------------|
B|-----------------------------------------19-19----------------19--17-19----|
G|---------------------------------------------------------------------------|
D|---------------------------------------------------------------------------|
A|---------------------------------------------------------------------------|
E|---------------------------------------------------------------------------|

E|---------------------------------------------------------------------------|
B|-17--19-19~--17-19/21-21b22--21p19-21~--19-17--19~--17-17-17-17\14~--------|
G|---------------------------------------------------------------------------|
D|---------------------------------------------------------------------------|
A|---------------------------------------------------------------------------|
E|---------------------------------------------------------------------------|

E|-14h15p14------14~----------14------14-------------------------------------|
B|------------17------17-15---17b19---17b19~---17~--14-17~--14---------------|
G|---------------------------------------------------------------16-14-16~---|
D|---------------------------------------------------------------------------|
A|---------------------------------------------------------------------------|
E|---------------------------------------------------------------------------|

E|---------------------------------------------------------------------------|
B|----------------------------------------------------20b22------------------|
G|-7-9-7-9b11--7-9-7~-----7-9/11-11/14~------------14------------------------|
D|----------------------9-----------------12-14/16---------------------------|
A|---------------------------------------------------------------------------|
E|---------------------------------------------------------------------------|

E|---------------------------------------------------------------------------|
B|---------------------------------------------------------------------------|
G|-11-10-9-7-9~--7-9~----7----7--------------------------------------7-------|
D|-11--------------9~--9----9-7----------------------------------7-9-7-9-7-9~|
A|------------------------------9\7-5-7b9--7---5~-----------5-7/9------------|
E|-------------------------------------------7-----7-5-7~--------------------|

E|--------7------------------------------------------------------------------|
B|------7---7-10b12-10b12-10~--------10-12-13b15--12-10-12~--15b17--15~------|
G|-9b11-------------------------9/11-----------------------------------------|
D|---------------------------------------------------------------------------|
A|---------------------------------------------------------------------------|
E|---------------------------------------------------------------------------|

E|---------------------------------------------------------------------------|
B|-10-7-7b8-7---------------2b3----------------------------------------------|
G|----------------7-7-----------4-2-4\2----2---------------------------------|
D|----------------0-0--------------------4---5\4--2-2-2-4b5------------------|
A|---------------------------------------------------------------------------|
E|---------------------------------------------------------------------------|

E|---------------------------------------------------------------------------|
B|----------------------------------------------------------------7h8h10-8~--|
G|----------------------4~--2-------------7---7~----6h7p6---6h7h9------------|
D|---0-2/4--2~--0---2/4---------4b5---7---7-9-----9-------9------------------|
A|-2--------------2-------------------7/9------------------------------------|
E|---------------------------------------------------------------------------|

E|----------7------7------7-----------7------7-------------------------------|
B|-7---7~---10b12--10b12--10b12-------10b12--10b12---10~---------------------|
G|---9----------------------------------------------------11~----------------|
D|---------------------------------------------------------------------------|
A|---------------------------------------------------------------------------|
E|---------------------------------------------------------------------------|

E|---------------------------------------------------------------------------|
B|-7-7x-7---6----------------------------------------------------------------|
G|-6-6x-6------7/9-11-7~-----------------------------------------------------|
D|------------------------9--------------------------------------------------|
A|----------------------------9\7-5-7/9~---7~---2~---------------------------|
E|---------------------------------------------------------------------------|

Outros vídeos desta música
    19.210 exibições
      • ½ Tom
      • A
      • Bb
      • B
      • C
      • Db
      • D
      • Eb
      • E
      • F
      • F#
      • G
      • Ab
    • Adicionar à lista

    Afinação da cifra

    Afinador online

      0 comentários

      Ver todos os comentários

      Entre para o Cifra Club PRO

      Tenha acesso a benefícios exclusivos no App e no Site

      • Chega de anúncios

      • Mais recursos no app do Afinador

      • Atendimento Prioritário

      • Aumente seu limite de lista

      • Ajude a produzir mais conteúdo

      Cifra Club Pro

      Aproveite o Cifra Club com benefícios exclusivos e sem anúncios
      Cifra Club Pro
      Aproveite o Cifra Club com benefícios exclusivos e sem anúncios
      OK