Cifra Club

Mil Vidas Atrás

Violetta

Cifra: Principal (violão e guitarra)
tom: G
Intro: 
           G                                   G

E|3-------3--------2---------2-----------3-------3------------2--------------|
B|------3-----3-----------3---------3----------3--------3--------------------|
G|---0------0----------0---------0----------0-------0------------------------|
D|---------------------------------------------------------------------------|
A|---------------------------------------------------------------------------|
E|3----------------3---------------------3--------------------3--------------|


Parte 1
G
Cuando me miro al espejo
                          D
Solo veo tu reflejo, tus ojos
          C
Ventanas son
            D
A un mundo mejor
G
Como fuego en el invierno

Tu le das calor a mi universo
   Em              C
Es amor, sin condicion
Em       D      D4
Lo que siento yo estando contigo


   G                                  G

E|3-------3---------2------2---------3------3------2------2------------|
B|------3------3---------3------3---------3-----3-------3------3-------|
G|----0-----0----------0------0---------0-----0-------0------0---------|
D|---------------------------------------------------------------------|
A|---------------------------------------------------------------------|
E|3-----------------3----------------3-------------3-------------------|

   D                          C               D

E|2------2-----2-----2-------0-----0---------2------2----2--------------|
B|-----3-----3-----3----0--------1-----0----------3----3----------------|
G|---2-----2-----2----2--------0-----0----------2----2------------------|
D|0------------------------------------------0--------------------------|
A|---------------------------3------------------------------------------|
E|----------------------------------------------------------------------|

   G                                  G

E|3-------3---------2------2---------3------3------2------2------------|
B|------3------3---------3------3---------3-----3-------3------3-------|
G|----0-----0----------0------0---------0-----0-------0------0---------|
D|---------------------------------------------------------------------|
A|---------------------------------------------------------------------|
E|3-----------------3----------------3-------------3-------------------|

   Em                            C                     Em            D            D4     D

E|0-------0-----0-----0---------0-----0----0----------0-------------2------2-----3------2------|
B|0-----0-----0-----0-----0----------1----1-----0-----0------0-----------3-----3------3--------|
G|0---0-----0-----0-----0----------0----0-----0-------0----0-----------2-----2------2----------|
D|2---------------------------------------------------2-------------0------------0------0------|
A|2-----------------------------3---------------------2----------------------------------------|
E|0---------------------------------------------------0----------------------------------------|





Refrão:       
 C            D
Dime si esto es real llegaste a cambiar
 Bm          E
Con un beso mi verdad
    C         D
No sé como expresar con palabras que
Bm         E
Cuando miro tus ojos sé
     C     Cm
Que ya te amè mil vidas atrás

   C             D              Bm             E

E|0------0------2------2--------2------2------0------0---------------|
B|1----1----0---3----3-----0----3----3----0---0----0-----0-----------|
G|0--0----0-----2--2-----2------4--4----4-----1--1-----1-------------|
D|2-------------0---------------4-------------2----------------------|
A|3-----------------------------2-------------2----------------------|
E|--------------------------------------------0----------------------|

   C             D              Bm             E              C  Cm

E|0------0------2------2--------2------2------0------0-------0---3-----|
B|1----1----0---3----3-----0----3----3----0---0----0-----0---1---4-----|
G|0--0----0-----2--2-----2------4--4----4-----1--1-----1-----0---5-----|
D|2-------------0---------------4-------------2--------------2---5-----|
A|3-----------------------------2-------------2--------------3---3-----|
E|--------------------------------------------0------------------------|



A partir daqui ainda é a tablatura padrão; continue igual.

Parte 2:

G
Cuando respiro te siento

De armonia me llenas el pecho
Em       C
Con tu voz, no hay temor
D
En mi corazón
G
Sin ti estaria incompleto

No saldria eso si no te tengo
Am      C
Oh!Es amor, sin condicion
D         D4
Lo que siento yo estando contigo


Refrão 2:

C          D
Dime si esto es real llegaste a cambiar  
Bm        E
Con un beso mi verdad
C           D
No se como expresar con palabras qué
Bm        E
Cuando miro tus ojos sé
C        Cm
Que ya te ame mil vidas atrás
 G
 Ya te ame.
00:00 / 00:00
Outros vídeos desta música
Repetir
Outros vídeos desta música
Composição de Los Chicos
Colaboração e revisão:
  • Suzana Cavalcante
  • Larissa Rodrigues
14.661 exibições
    • ½ Tom
    • A
    • Bb
    • B
    • C
    • Db
    • D
    • Eb
    • E
    • F
    • F#
    • G
    • Ab
  • Adicionar à lista

    0 comentários

    Ver todos os comentários

    Conseguiu tocar?

    1 Tocaram 0 Ainda não

    Grave um vídeo tocando Mil Vidas Atrás e nos envie!

    Entre para oCifra Club PRO

    Tenha acesso a benefícios exclusivos no App e no Site

    • Chega de anúncios

    • Prioridade de compra em lançamentos

    • Mais recursos no app do Afinador

    • Atendimento Prioritário

    • Descontos nos produtos Cifra Club

    • Ajude a produzir mais conteúdo

    00:00 / 00:00

    Cifra Club Pro

    Aproveite o Cifra Club com benefícios exclusivos e sem anúncios
    Cifra Club Pro
    Aproveite o Cifra Club com benefícios exclusivos e sem anúncios
    OK