Cifra Club

La Boulange

Yann Tiersen

Cifra: Principal (violão e guitarra)
Selo Cifra Club: esta cifra foi revisada para atender aos critérios oficiais da nossa Equipe de Qualidade.
tom: Am
E|E|----------------------------------------------------------------------------------------------------||
                                  Yann Tiersen - La Boulange
E|E|----------------------------------------------------------------------------------------------------||

Album : Les Retrouvailles (2005)
Tempo : 133
E-mail: gwendal.mollo@orange.fr

More with my Guitar Pro file.

Guitar 1 :

[Intro]
    Am                   Am                   Am                   Am
E|--------------------|--------------------|--------------------|--------------------|
B|--------------------|--------------------|--------------------|--------------------|
G|--5--5-----5--5-----|--5--5-----5--5-----|--5--5-----5--5-----|--5--5-----5--5-----|
D|--7--7-----7--7-----|--7--7-----7--7-----|--7--7-----7--7-----|--7--7-----7--7-----|
A|--7--7-----7--7-----|--7--7-----7--7-----|--7--7-----7--7-----|--7--7-----7--7-----|
E|--5--5-----5--5-----|--5--5-----5--5-----|--5--5-----5--5-----|--5--5-----5--5-----|

    D                    F                    D                    F
E|--------------------|--------------------|--------------------|--------------------|
B|--7--7-----7--7-----|--10-10----10-10----|--7--7-----7--7-----|--10-10----10-10----|
G|--7--7-----7--7-----|--10-10----10-10----|--7--7-----7--7-----|--10-10----10-10----|
D|--7--7-----7--7-----|--10-10----10-10----|--7--7-----7--7-----|--10-10----10-10----|
A|--5--5-----5--5-----|--8--8-----8--8-----|--5--5-----5--5-----|--8--8-----8--8-----|
E|--------------------|--------------------|--------------------|--------------------|

     C                    E                    C                    E
E|--------------------|--------------------|--------------------|-------------------------|
B|---8----------------|--9--9-----9--9-----|---8----------------|--------9--9-------9--9--|
G|-- 9--9-----9--9----|--9--9-----9--9-----|-- 9--9-----9--9----|--------9--9-------9--9--|
D|--10-10----10-10----|--9--9-----9--9-----|--10-10----10-10----|--------9--9-------9--9--|
A|--10-10----10-10----|--7--7-----7--7-----|--10-10----10-10----|--7--7--------7--7-------|
E|-- 8--8-----8--8----|--------------------|-- 8--8-----8--8----|--0--0--------0--0-------|

[Theme 1]

    Am                    C                   Am                    C  
E|--------------------|--------------------|--------------------|--------------------|
B|--------------------|---8----------------|--------------------|---8----------------|
G|--5--5-----5--5-----|--| 9--9-----9--9----|--5--5-----5--5-----|-- 9--9-----9--9----|
D|--7--7-----7--7-----|--10-10----10-10----|--7--7-----7--7-----|--10-10----10-10----|
A|--7--7-----7--7-----|--10-10----10-10----|--7--7-----7--7-----|--10-10----10-10----|
E|--5--5-----5--5-----|--| 8--8-----8--8----|--5--5-----5--5-----|-- 8--8-----8--8----|

    D                    F                    D                    F
E|--------------------|--------------------|--------------------|--------------------|
B|--7--7-----7--7-----|--10-10----10-10----|--7--7-----7--7-----|--10-10----10-10----|
G|--7--7-----7--7-----|--10-10----10-10----|--7--7-----7--7-----|--10-10----10-10----|
D|--7--7-----7--7-----|--10-10----10-10----|--7--7-----7--7-----|--10-10----10-10----|
A|--5--5-----5--5-----|--8--8-----8--8-----|--5--5-----5--5-----|--8--8-----8--8-----|
E|--------------------|--------------------|--------------------|--------------------|

     C                    E                    C                    E
E|--------------------|--------------------|--------------------|--------------------|
B|---8----------------|--9--9-----9--9-----|---8----------------|--9--9-----9--9-----|
G|-- 9--9-----9--9----|--9--9-----9--9-----|-- 9--9-----9--9----|--9--9-----9--9-----|
D|--10-10----10-10----|--9--9-----9--9-----|--10-10----10-10----|--9--9-----9--9-----|
A|--10-10----10-10----|--7--7-----7--7-----|--10-10----10-10----|--7--7-----7--7-----|
E|-- 8--8-----8--8----|--------------------|-- 8--8-----8--8----|--------------------|

[Theme 2]

    Am                   F                   Am                   F
E|--------------------|--------------------|--------------------|--------------------|
B|--------------------|--10-10----10-10----|--------------------|--10-10----10-10----|
G|--5--5-----5--5-----|--10-10----10-10----|--5--5-----5--5-----|--10-10----10-10----|
D|--7--7-----7--7-----|--10-10----10-10----|--7--7-----7--7-----|--10-10----10-10----|
A|--7--7-----7--7-----|--8--8-----8--8-----|--7--7-----7--7-----|--8--8-----8--8-----|
E|--5--5-----5--5-----|--------------------|--5--5-----5--5-----|--------------------|

     C                    E                    C                    E
E|--------------------|--------------------|--------------------|--------------------|
B|---8----------------|--9--9-----9--9-----|---8----------------|--9--9-----9--9-----|
G|-- 9--9-----9--9----|--9--9-----9--9-----|-- 9--9-----9--9----|--9--9-----9--9-----|
D|--10-10----10-10----|--9--9-----9--9-----|--10-10----10-10----|--9--9-----9--9-----|
A|--10-10----10-10----|--7--7-----7--7-----|--10-10----10-10----|--7--7-----7--7-----|
E|-- 8--8-----8--8----|--------------------|-- 8--8-----8--8----|--------------------|

    Am                   F                   Am                   F
E|--------------------|--------------------|--------------------|--------------------|
B|--------------------|--10-10----10-10----|--------------------|--10-10----10-10----|
G|--5--5-----5--5-----|--10-10----10-10----|--5--5-----5--5-----|--10-10----10-10----|
D|--7--7-----7--7-----|--10-10----10-10----|--7--7-----7--7-----|--10-10----10-10----|
A|--7--7-----7--7-----|--8--8-----8--8-----|--7--7-----7--7-----|--8--8-----8--8-----|
E|--5--5-----5--5-----|--------------------|--5--5-----5--5-----|--------------------|

     C                    E                    C                    E
E|--------------------|--------------------|--------------------|--------------------|
B|---8----------------|--9--9-----9--9-----|---8----------------|--9--9-----9--9-----|
G|-- 9--9-----9--9----|--9--9-----9--9-----|-- 9--9-----9--9----|--9--9-----9--9-----|
D|--10-10----10-10----|--9--9-----9--9-----|--10-10----10-10----|--9--9-----9--9-----|
A|--10-10----10-10----|--7--7-----7--7-----|--10-10----10-10----|--7--7-----7--7-----|
E|-- 8--8-----8--8----|--------------------|-- 8--8-----8--8----|--------------------|

[Pont]

    Am                    C                   Am                    C  
E|--------------------|--------------------|--------------------|--------------------|
B|--------------------|---8----------------|--------------------|---8----------------|
G|--5--5-----5--5-----|--| 9--9-----9--9----|--5--5-----5--5-----|-- 9--9-----9--9----|
D|--7--7-----7--7-----|--10-10----10-10----|--7--7-----7--7-----|--10-10----10-10----|
A|--7--7-----7--7-----|--10-10----10-10----|--7--7-----7--7-----|--10-10----10-10----|
E|--5--5-----5--5-----|--| 8--8-----8--8----|--5--5-----5--5-----|-- 8--8-----8--8----|

    D                    F                    D                    F
E|--------------------|--------------------|--------------------|--------------------|
B|--7--7-----7--7-----|--10-10----10-10----|--7--7-----7--7-----|--10-10----10-10----|
G|--7--7-----7--7-----|--10-10----10-10----|--7--7-----7--7-----|--10-10----10-10----|
D|--7--7-----7--7-----|--10-10----10-10----|--7--7-----7--7-----|--10-10----10-10----|
A|--5--5-----5--5-----|--8--8-----8--8-----|--5--5-----5--5-----|--8--8-----8--8-----|
E|--------------------|--------------------|--------------------|--------------------|

     C                    E                    C                    E
E|--------------------|--------------------|--------------------|--------------------|
B|---8----------------|--9--9-----9--9-----|---8----------------|--9--9-----9--9-----|
G|-- 9--9-----9--9----|--9--9-----9--9-----|-- 9--9-----9--9----|--9--9-----9--9-----|
D|--10-10----10-10----|--9--9-----9--9-----|--10-10----10-10----|--9--9-----9--9-----|
A|--10-10----10-10----|--7--7-----7--7-----|--10-10----10-10----|--7--7-----7--7-----|
E|-- 8--8-----8--8----|--------------------|-- 8--8-----8--8----|--------------------|


[Theme 1]

    Am                    C                   Am                    C  
E|--------------------|--------------------|--------------------|--------------------|
B|--------------------|---8----------------|--------------------|---8----------------|
G|--5--5-----5--5-----|--| 9--9-----9--9----|--5--5-----5--5-----|-- 9--9-----9--9----|
D|--7--7-----7--7-----|--10-10----10-10----|--7--7-----7--7-----|--10-10----10-10----|
A|--7--7-----7--7-----|--10-10----10-10----|--7--7-----7--7-----|--10-10----10-10----|
E|--5--5-----5--5-----|--| 8--8-----8--8----|--5--5-----5--5-----|-- 8--8-----8--8----|

    D                    F                    D                    F
E|--------------------|--------------------|--------------------|--------------------|
B|--7--7-----7--7-----|--10-10----10-10----|--7--7-----7--7-----|--10-10----10-10----|
G|--7--7-----7--7-----|--10-10----10-10----|--7--7-----7--7-----|--10-10----10-10----|
D|--7--7-----7--7-----|--10-10----10-10----|--7--7-----7--7-----|--10-10----10-10----|
A|--5--5-----5--5-----|--8--8-----8--8-----|--5--5-----5--5-----|--8--8-----8--8-----|
E|--------------------|--------------------|--------------------|--------------------|

     C                    E                    C                    E
E|--------------------|--------------------|--------------------|--------------------|
B|---8----------------|--9--9-----9--9-----|---8----------------|--9--9-----9--9-----|
G|-- 9--9-----9--9----|--9--9-----9--9-----|-- 9--9-----9--9----|--9--9-----9--9-----|
D|--10-10----10-10----|--9--9-----9--9-----|--10-10----10-10----|--9--9-----9--9-----|
A|--10-10----10-10----|--7--7-----7--7-----|--10-10----10-10----|--7--7-----7--7-----|
E|-- 8--8-----8--8----|--------------------|-- 8--8-----8--8----|--------------------|

[Theme 2]

    Am                   F                   Am                   F
E|--------------------|--------------------|--------------------|--------------------|
B|--------------------|--10-10----10-10----|--------------------|--10-10----10-10----|
G|--5--5-----5--5-----|--10-10----10-10----|--5--5-----5--5-----|--10-10----10-10----|
D|--7--7-----7--7-----|--10-10----10-10----|--7--7-----7--7-----|--10-10----10-10----|
A|--7--7-----7--7-----|--8--8-----8--8-----|--7--7-----7--7-----|--8--8-----8--8-----|
E|--5--5-----5--5-----|--------------------|--5--5-----5--5-----|--------------------|

     C                    E                    C                    E
E|--------------------|--------------------|--------------------|--------------------|
B|---8----------------|--9--9-----9--9-----|---8----------------|--9--9-----9--9-----|
G|-- 9--9-----9--9----|--9--9-----9--9-----|-- 9--9-----9--9----|--9--9-----9--9-----|
D|--10-10----10-10----|--9--9-----9--9-----|--10-10----10-10----|--9--9-----9--9-----|
A|--10-10----10-10----|--7--7-----7--7-----|--10-10----10-10----|--7--7-----7--7-----|
E|-- 8--8-----8--8----|--------------------|-- 8--8-----8--8----|--------------------|

    Am                   F                   Am                   F
E|--------------------|--------------------|--------------------|--------------------|
B|--------------------|--10-10----10-10----|--------------------|--10-10----10-10----|
G|--5--5-----5--5-----|--10-10----10-10----|--5--5-----5--5-----|--10-10----10-10----|
D|--7--7-----7--7-----|--10-10----10-10----|--7--7-----7--7-----|--10-10----10-10----|
A|--7--7-----7--7-----|--8--8-----8--8-----|--7--7-----7--7-----|--8--8-----8--8-----|
E|--5--5-----5--5-----|--------------------|--5--5-----5--5-----|--------------------|

     C                    E                    C                    E
E|--------------------|--------------------|--------------------|--------------------|
B|---8----------------|--9--9-----9--9-----|---8----------------|--9--9-----9--9-----|
G|-- 9--9-----9--9----|--9--9-----9--9-----|-- 9--9-----9--9----|--9--9-----9--9-----|
D|--10-10----10-10----|--9--9-----9--9-----|--10-10----10-10----|--9--9-----9--9-----|
A|--10-10----10-10----|--7--7-----7--7-----|--10-10----10-10----|--7--7-----7--7-----|
E|-- 8--8-----8--8----|--------------------|-- 8--8-----8--8----|--------------------|

[Outro]

    Am                    C                   Am                    C  
E|--------------------|--------------------|--------------------|--------------------|
B|--------------------|---8----------------|--------------------|---8----------------|
G|--5--5-----5--5-----|--| 9--9-----9--9----|--5--5-----5--5-----|-- 9--9-----9--9----|
D|--7--7-----7--7-----|--10-10----10-10----|--7--7-----7--7-----|--10-10----10-10----|
A|--7--7-----7--7-----|--10-10----10-10----|--7--7-----7--7-----|--10-10----10-10----|
E|--5--5-----5--5-----|--| 8--8-----8--8----|--5--5-----5--5-----|-- 8--8-----8--8----|

    Am                    C                   Am                    C  
E|--------------------|--------------------|--------------------|--------------------|
B|--------------------|---8----------------|--------------------|---8----------------|
G|--5--5-----5--5-----|--| 9--9-----9--9----|--5--5-----5--5-----|-- 9--9-----9--9----|
D|--7--7-----7--7-----|--10-10----10-10----|--7--7-----7--7-----|--10-10----10-10----|
A|--7--7-----7--7-----|--10-10----10-10----|--7--7-----7--7-----|--10-10----10-10----|
E|--5--5-----5--5-----|--| 8--8-----8--8----|--5--5-----5--5-----|-- 8--8-----8--8----|






Guitar 2  (Violon arrenged) : 

[Intro]
Play with a violin effect or fade in

E|--8-----------------|--------------------|--8-----------------|--------------------|
B|--------------------|--5-----------------|--------------------|--8-----------------|
G|--------------------|--------------------|--------------------|--------------------|
D|--------------------|--------------------|--------------------|--------------------|
A|--------------------|--------------------|--------------------|--------------------|
E|--------------------|--------------------|--------------------|--------------------|

E|--7-----------------|--------------------|--7-----------------|--------------------|
B|--------------------|--6-----------------|--------------------|--6-----------------|
G|--------------------|--------------------|--------------------|--------------------|
D|--------------------|--------------------|--------------------|--------------------|
A|--------------------|--------------------|--------------------|--------------------|
E|--------------------|--------------------|--------------------|--------------------|

E|--3-----------------|--3-----------------|--3-----------------|-/19----------------|
B|--------------------|--------------------|--------------------|--------------------|
G|--------------------|--------------------|--------------------|--------------------|
D|--------------------|--------------------|--------------------|--------------------|
A|--------------------|--------------------|--------------------|--------------------|
E|--------------------|--------------------|--------------------|--------------------|


[Theme 1]


E|--5--0--3--0-----0--1--0--|--3--0--1-----------------|
B|--------------------------|-----------2--------------|
G|--------------------------|--------------------------|
D|--------------------------|--------------------------|
A|--------------------------|--------------------------|
E|--------------------------|--------------------------| x2

E|--5--1--0--1-----0--1--0--|--3--0--1-----------------|
B|--------------------------|-----------1--------------|
G|--------------------------|--------------------------|
D|--------------------------|--------------------------|
A|--------------------------|--------------------------|
E|--------------------------|--------------------------| x2

E|--3--0-----0--------0-----|--5--0--1-----------------|
B|--------3--------3-----3--|-----------1--------------|
G|--------------------------|--------------------------|
D|--------------------------|--------------------------|
A|--------------------------|--------------------------|
E|--------------------------|--------------------------| x2

[Theme 2]

E|--12----------------|--10------12--------|--12----------------|--10------12--------|
B|--------------------|--------------------|--------------------|--------------------|
G|--------------------|--------------------|--------------------|--------------------|
D|--------------------|--------------------|--------------------|--------------------|
A|--------------------|--------------------|--------------------|--------------------|
E|--------------------|--------------------|--------------------|--------------------|

E|--12--------8-------|--12----------------|--12--------8-------|--12----------------|
B|--------------------|------------12------|--------------------|------------12------|
G|--------------------|--------------------|--------------------|--------------------|
D|--------------------|--------------------|--------------------|--------------------|
A|--------------------|--------------------|--------------------|--------------------|
E|--------------------|--------------------|--------------------|--------------------|

E|--12----------------|--10------12--------|--12----------------|--10------12--------|
B|--------------------|--------------------|--------------------|--------------------|
G|--------------------|--------------------|--------------------|--------------------|
D|--------------------|--------------------|--------------------|--------------------|
A|--------------------|--------------------|--------------------|--------------------|
E|--------------------|--------------------|--------------------|--------------------|

E|--12--------8-------|--12----------------|--12--------8-------|--12----------------|
B|--------------------|------------12------|--------------------|------------12------|
G|--------------------|--------------------|--------------------|--------------------|
D|--------------------|--------------------|--------------------|--------------------|
A|--------------------|--------------------|--------------------|--------------------|
E|--------------------|--------------------|--------------------|--------------------| 

[Pont]

E|--------13-13------13-13--|--------12-12------12-12--|
B|--------------------------|--------------------------|
G|--------------------------|--------------------------|
D|--------------------------|--10-10--------10-10------|
A|--12-12-------12-12-------|--------------------------|
E|--------------------------|--------------------------| x2

E|--------13-13------13-13--|--------13-13------13-13--|
B|--------------------------|--------------------------|
G|--------------------------|--10-10--------10-10------|
D|--12-12-------12-12-------|--------------------------|
A|--------------------------|--------------------------|
E|--------------------------|--------------------------| x2

E|--------13-13------13-13--|--------12-12------12-12--|
B|--------------------------|--------------------------|
G|--------------------------|--------------------------|
D|--------------------------|---------------10-10------|
A|--15-15-------15-15-------|--------------------------|
E|--------------------------|--12-12-------------------| x2


[Theme 1]


E|--5--0--3--0-----0--1--0--|--3--0--1-----------------|
B|--------------------------|-----------2--------------|
G|--------------------------|--------------------------|
D|--------------------------|--------------------------|
A|--------------------------|--------------------------|
E|--------------------------|--------------------------| x2

E|--5--1--0--1-----0--1--0--|--3--0--1-----------------|
B|--------------------------|-----------1--------------|
G|--------------------------|--------------------------|
D|--------------------------|--------------------------|
A|--------------------------|--------------------------|
E|--------------------------|--------------------------| x2

E|--3--0-----0--------0-----|--5--0--1-----------------|
B|--------3--------3-----3--|-----------1--------------|
G|--------------------------|--------------------------|
D|--------------------------|--------------------------|
A|--------------------------|--------------------------|
E|--------------------------|--------------------------| x2

[Theme 2]

E|--12----------------|--10------12--------|--12----------------|--10------12--------|
B|--------------------|--------------------|--------------------|--------------------|
G|--------------------|--------------------|--------------------|--------------------|
D|--------------------|--------------------|--------------------|--------------------|
A|--------------------|--------------------|--------------------|--------------------|
E|--------------------|--------------------|--------------------|--------------------|

E|--12--------8-------|--12----------------|--12--------8-------|--12----------------|
B|--------------------|------------12------|--------------------|------------12------|
G|--------------------|--------------------|--------------------|--------------------|
D|--------------------|--------------------|--------------------|--------------------|
A|--------------------|--------------------|--------------------|--------------------|
E|--------------------|--------------------|--------------------|--------------------|

E|--12----------------|--10------12--------|--12----------------|--10------12--------|
B|--------------------|--------------------|--------------------|--------------------|
G|--------------------|--------------------|--------------------|--------------------|
D|--------------------|--------------------|--------------------|--------------------|
A|--------------------|--------------------|--------------------|--------------------|
E|--------------------|--------------------|--------------------|--------------------|

E|--12--------8-------|--12----------------|--12--------8-------|--12----------------|
B|--------------------|------------12------|--------------------|------------12------|
G|--------------------|--------------------|--------------------|--------------------|
D|--------------------|--------------------|--------------------|--------------------|
A|--------------------|--------------------|--------------------|--------------------|
E|--------------------|--------------------|--------------------|--------------------| 

[Outro]

E|--------------------|--------------------|--------------------|--------------------|
B|--------------------|--------------------|--------------------|--------------------|
G|--------------------|--------------------|--------------------|--------------------|
D|--------------------|--------------------|--------------------|--------------------|
A|--------------------|--------------------|--------------------|--------------------|
E|--------------------|--------------------|--------------------|--------------------|

E|--------13-13-------13-13--|---------12-12-------12-12--|--------13-13-------13-13--|---------12-12----------|
B|--10-10-------10-10--------|--10-10-------10-10---------|--10-10-------10-10--------|--10-10-------10-10-----|
G|---------------------------|----------------------------|---------------------------|------------------------|
D|---------------------------|----------------------------|---------------------------|------------------------|
A|---------------------------|----------------------------|---------------------------|------------------------|
E|---------------------------|----------------------------|---------------------------|------------------------|
00:00 / 00:00
Outros vídeos desta música
Repetir
Outros vídeos desta música
4 exibições
    • ½ Tom
    • Am
    • Bbm
    • Bm
    • Cm
    • C#m
    • Dm
    • Ebm
    • Em
    • Fm
    • F#m
    • Gm
    • G#m
  • Adicionar à lista

Afinação da cifra

Afinador online

    0 comentários

    Ver todos os comentários

    Entre para o Cifra Club PRO

    Tenha acesso a benefícios exclusivos no App e no Site

    • Chega de anúncios

    • Mais recursos no app do Afinador

    • Atendimento Prioritário

    • Aumente seu limite de lista

    • Ajude a produzir mais conteúdo

    00:00 / 00:00

    Cifra Club Pro

    Aproveite o Cifra Club com benefícios exclusivos e sem anúncios
    Cifra Club Pro
    Aproveite o Cifra Club com benefícios exclusivos e sem anúncios
    OK