Cifra Club

Ive Seen All Good People

Yes

Cifra: Principal (violão e guitarra)
Selo Cifra Club: esta cifra foi revisada para atender aos critérios oficiais da nossa Equipe de Qualidade.
tom: Bm
E|E|E|-----------------------------------------------------------------------------|||
                       I'VE SEEN ALL GOOD PEOPLE - Yes
E|E|E|-----------------------------------------------------------------------------|||

Written by: J. Anderson/C. Squire 
Album: "The Yes Album"     (1971, Atlantic Records)
Guitarist: Steve Howe

Tabbed by: Anne Drury   (zerofret) 
Date: April 15, 2008

INTRO:
                                                    _
I've seen all good people turn their heads each day  |
So satisfied I'm on my way                          _| 2x   a capella


i. "YOUR MOVE"     (J. Anderson)     (4/4 time)

   E
E|---------------------------------|---------------------------------|
B|----12-12h14-12--12=h14--12--14--|-----12------9-------------------|
G|----13-13h14-13--13=h14--13--14--|-----13------9-------9-------9---|
D|---------------------------------|-------------------------9-------|
A|---------------------------------|---------------------------------|
E|---------------------------------|---------------------------------|
    .     .         .       .         .       .       .       .

   E
E|---------------------------------|---------------------------------|
B|----12-12h14-12--12=h14--12------|-------------9-------------------|
G|----13-13h14-13--13=h14--13--11--|-----9---------------9-----------|
D|---------------------------------|-------------------------11------|
A|---------------------------------|-----------------------------11--|
E|---------------------------------|---------------------------------|
    .     .         .       .         .       .       .       .

   E                                                             A
E|---------------------------------|---------------------------------|
B|----12-12h14-12--12=h14--12--14--|-----12------16------14------19--|
G|----13-13h14-13--13=h14--13--14--|-----13------16------14----------|
D|---------------------------------|-----------------------------19--|
A|---------------------------------|---------------------------------|
E|---------------------------------|---------------------------------|
    .     .         .       .         .       .       .       .

   A
E|---------19--17------19--17------|-19--17--16------17----------16--|
B|-----19----------19----------19--|-------------17------19----------|
G|---------------------------------|---------------------------------|
D|---------------------------------|---------------------------------|
A|---------------------------------|---------------------------------|
E|---------------------------------|---------------------------------|
    .       .       .       .         .       .       .       .


1ST VERSE:

   E                 F#m               G#m               F#m
E|-4-4---4---4-4-4-|-5-5---5---5-5-5-|-7-7---7---7-7-7-|-5-5---5---5-5-5-|
B|-5-5---5---5-5-5-|-7-7---7---7-7-7-|-9-9---9---9-9-9-|-7-7---7---7-7-7-|
G|-4-4---4---4-4-4-|-6-6---6---6-6-6-|-8-8---8---8-8-8-|-6-6---6---6-6-6-|
D|-6-6---6---6-6-6-|-7-7---7---7-7-7-|-9-9---9---9-9-9-|-7-7---7---7-7-7-| 3x
A|-----------------|-----------------|-----------------|-----------------|
E|-----------------|-----------------|-----------------|-----------------|
    .   .   .   .     .   .   .   .     .   .   .   .     .   .   .   .
    d u   u   u d u

1. Take a straight and stronger course to the corner of your life
2. Make the White Queen run so fast,     She hasn't got time to make you a 
3. wife


CHORUS:

   E                 F#m               G#m
E|-4-4---4---4-4-4-|-5-5---5---5-5-5-|-7-7---7---7-7-7-|
B|-5-5---5---5-5-5-|-7-7---7---7-7-7-|-9-9---9---9-9-9-|
G|-4-4---4---4-4-4-|-6-6---6---6-6-6-|-8-8---8---8-8-8-|
D|-6-6---6---6-6-6-|-7-7---7---7-7-7-|-9-9---9---9-9-9-|
A|-----------------|-----------------|-----------------|
E|-----------------|-----------------|-----------------|
    .   .   .   .     .   .   .   .     .   .   .   .
   'Cause it's time,                   And its news  is
           it's time in time with your time,


    A                     (3x)
E|---9--9--9--9-----9--9--9--|--9--9--9--9-----9--9----|
B|o-10-10-10-10----10-10-10-o|-10-10-10-10----10-10----|
G|---9--9--9--9-----9--9--9--|--9--9--9--9-----9--9----|
D|--11-11-11-11----11-11-11--|-11-11-11-11----11-11----|
A|o-------------------------o|-------------------------|
E|---------------------------|-------------------------|
     .     .     .     .        .     .     .     .
1.  captured
2.
3.         for       the       queen    to  use


2ND VERSE:   (played same as 1st Verse)

 E            F#m
Move me on to any black square
G#m        F#m
Use me any time you want
 E            F#m
Just remember that the goal
G#m               F#m            E    F#m   G#m   F#m
Is for us all to capture all we want, yeah, yeah, yeah yeah yeah
                                (Move me on to any black square)
 E                 F#m
Don't surround yourself with yourself
 G#m               F#m
Move on back two squares
 E               F#m
Send an instant karma to me
 G#m       F#m          E        F#m      G#m      F#m
Initial it with loving care,          yourself
                      (Don't surround yourself)


Play CHORUS


3RD VERSE:   (played same as 1st Verse)

 E                       F#m                   G#m      F#m
Didit didit didit didit didit didit didit da da
 E                       F#m                   G#m      F#m
Didit didit didit didit didit didit didit da da
(Don't               surround             yourself with yourself)

 E                 F#m
Don't surround yourself with yourself
 G#m               F#m
Move on back two squares
 E               F#m
Send an instant karma to me
 G#m       F#m          E        F#m      G#m      F#m    
Initial it with loving care,          yourself
                      (Don't surround yourself)


CHORUS:

   E                 F#m               G#m
E|-4-4---4---4-4-4-|-5-5---5---5-5-5-|-7-7---7---7-7-7-|
B|-5-5---5---5-5-5-|-7-7---7---7-7-7-|-9-9---9---9-9-9-|
G|-4-4---4---4-4-4-|-6-6---6---6-6-6-|-8-8---8---8-8-8-|
D|-6-6---6---6-6-6-|-7-7---7---7-7-7-|-9-9---9---9-9-9-|
A|-----------------|-----------------|-----------------|
E|-----------------|-----------------|-----------------|
    .   .   .   .     .   .   .   .     .   .   .   .
   'Cause it's time,                   And its news  is
           it's time in time with your time,


    A             (3x)
E|--5-5-5-5---5-5-5--|-5-5-5-5---5-5---|
B|o-5-5-5-5---5-5-5-o|-5-5-5-5---5-5---|
G|--6-6-6-6---6-6-6--|-6-6-6-6---6-6---|
D|--7-7-7-7---7-7-7--|-7-7-7-7---7-7---|
A|o-----------------o|-----------------|
E|-------------------|-----------------|
     .   .   .   .      .   .   .   .
1.  captured
2.
3.       for     the    queen to  use


4TH VERSE:   (played same as 1st Verse)

 E                       F#m                   G#m    F#m
Didit didit didit didit didit didit didit da da      (All we are)
 E                       F#m                   G#m    F#m
Didit didit didit didit didit didit didit da da
(saying                                            is give peace a)
 E                       F#m                   G#m    F#m
Didit didit didit didit didit didit didit da da
(chance,                                              All we are)
 E                       F#m                   G#m    F#m
Didit didit didit didit didit didit didit da da
(saying                                            is give peace a)


CHORUS:

   E                 F#m               G#m               A
E|-4-4---4---4-4-4-|-5-5---5---5-5-5-|-7-7---7---7-7-7-|--9--=-----------|
B|-5-5---5---5-5-5-|-7-7---7---7-7-7-|-9-9---9---9-9-9-|-10--=-----------|
G|-4-4---4---4-4-4-|-6-6---6---6-6-6-|-8-8---8---8-8-8-|--9--=-----------|
D|-6-6---6---6-6-6-|-7-7---7---7-7-7-|-9-9---9---9-9-9-|-11--=-----------|
A|-----------------|-----------------|-----------------|-----------------|
E|-----------------|-----------------|-----------------|-----------------|
    .   .   .   .     .   .   .   .     .   .   .   .     .   .   .   .
   (chance)
   'Cause it's time,                   And its news  is  captured
           it's time in time with your time,


ii. "ALL GOOD PEOPLE"     (C. Squire)     (12/8 time)


   A
E|-------------------------|-------------------------|
B|-------------------------|-------------------------|
G|----------------------4^w| =r---2----------------4^w|
D|-----------2=----2-4-----|-------4---2=----2-4-----|
A|-------------------------|-------------------------|
E|-------------------------|-------------------------|
    1 & a 2 & a 3 & a 4 & a | 1 & a 2 & a 3 & a 4 & a |

   A
E|-------------------------|-------------------------|
B|-------------------------|-------------------------|
 G =r---2----------------4^w|=r---2-------------------|
D|-------4---2=----2-4-----|-------4---2=----2-/6--4=|
A|-------------------------|-------------------------|
E|-------------------------|-------------------------|
    .     .     .     .       .     .     .     .

   B
E|-------------------------|-------------------------|
B|-------------------------|-------------------------|
 G ----------6^wr---4-------|----------6^wr---4-------|
 D =----4-6-----------6---4=|=----4-6-----------6---4=|
A|-------------------------|-------------------------|
E|-------------------------|-------------------------|
    .     .     .     .       .     .     .     .

   B
E|-------------------------|-------4-------------------|
B|-------------------------|---------7-4-4p2p0---------|
G|----------6^wr---4----6^w| =------------------2-------|
 D =----4-6-----------6-----|---------------------6p4-2-|
A|-------------------------|---------------------------|
E|-------------------------|---------------------------|
    .     .     .     .       .     .     .       .

   E
E|---------------------|
B|---------------------|
G|---------------------|
D|-2~------------------|
A|---------------------|
E|---------------------| D                 C                 G
      I've seen all good people turn their heads each day, So satisfied I'm


   A
E|-------------------------|-------------------------|
B|-------------------------|-------------------------|
 G ----------------------4^w|=r---2-------------------|
 D -2---2-4---2=----2-4-----|-------4---2=----2-/6--4=|
A|-------------------------|-------------------------|
E|-------------------------|-------------------------|
    .     .     .     .       .     .     .     . 
   on    my    way


   B
E|-------------------------|----11\9---9\7---7/14--14|
B|-------------------------|-------------------------|
G|----------6^wr---4-----6=| /11-11\9---9\8---8/14--14|
 D =----4-6-----------6-----|-------------------------|
A|-------------------------|-------------------------|
E|-------------------------|-------------------------|
    .     .     .     .       .     .     .     .

 E                   D                 C                 G
I've seen all good people turn their heads each day, So satisfied I'm


   A
E|-------------------------|-------------------------|
B|-------------------------|-------------------------|
 G ----------------------4^w|=r---2-------------------|
 D -----2-4---2=----2-4-----|-------4---2=------/6--4=|
A|-------------------------|-------------------------|
E|-------------------------|-------------------------|
    .     .     .     .       .     .     .     . 
   on    my    way


   B
E|-------------------------|-------------------------|
B|-------------------------|-------------------14-14=|
G|----------6^wr---4-------|----------6^wrp4---14-14=|
 D =----4-6-----------6---4=|=----4-6-----------14-14=|
A|-------------------------|-------------------------|
E|-------------------------|-------------------------|
    .     .     .     .       .     .     .     .

   A
E|-------------------------|------------------------------|
 B =---------------------14=|=------------------14^w--14^w=|
 G =-14p11------------11-14=|=-14p11---------11------------|
 D =------14--14---14----14=|=------14--14-----------------|
 A -------------------------|------------------------------|
E|-------------------------|------------------------------|
    .     .     .     .       .     .      .    .

   B
E|--------------------------|----14-----14------14-----14-|
 B ==rp12----------------14^w|=------14^w----14^w---14^w---|
G|-------13--11---11-13-----|-----------------------------|
D|--------------------------|-----------------------------|
A|--------------------------|-----------------------------|
E|--------------------------|-----------------------------|
    .     .     .     .        .     .       .      .

 E                   D                 C                 G
I've seen all good people turn their heads each day, So satisfied I'm


   A
E|-------------------------|-------------------------|
B|-------------------------|-------------------------|
 G ----------------------4^w|=r---2----------------4^w|
 D -2---2-4---2=----2-4-----|-------4---2=----2-4-----|
A|-------------------------|-------------------------|
E|-------------------------|-------------------------|
   on    my    way


E|-------------------------|-------------------------|-------------|
B|-------------------------|-------------------------|-------------|
 G =r---2----------------7^w|=r---5---------------11^w|=r---9-------|
D|-------/7--5=----5-7-----|-------/11-9=---9-11-----|-------11----|
A|-------------------------|-------------------------|-------------|
E|-------------------------|-------------------------|-------------|
    .      .     .    .       .      .    .     .       .     .

   A
E|-------------------------|-------------------------|
B|-------------------------|-------------------------|
 G -------------------------|-------------------5p4p2-|
 D -11---11----11--11-/12-11|=------------4p2p0-------|
 A -------------------------|-------4p2p0-------------|
 E -------------------------|-------------------------|
    .    .     .       .      .     .     .     .

   A
E|-------------------------|-------------------------|
B|----10-----8-------------|-------------------------|
G|-------------------2p0---|-------------------------|
 D /11----9\7---5\2-2-----2-|-------------------------|
A|-------------------------|-5p4-4-/7---4------------|
E|-------------------------|--------------5---5---5--|
    .     .     .     .       .      .     .     .

   B
E|-2h3h4h5-------------------------|--------------------------------|
B|---------4h5h6h7-----------------|--------------------------------|
G|-----------------4h5h6h7---------|--------------------------------|
D|-------------------------6h7h8h9-|--------------------------------|
A|---------------------------------|-6h7h8h9--------------9-11p9----|
E|---------------------------------|---------7h8h9h10-11---------11-|
    .       .       .       .         .       .        .     .

   B
E|-------------------------------------|------------------17-17-----------|
B|-------------------------------------| 15--15-15-15------------19p16-19--|
G|-------------------14-14-------------|------------16p14-----------------|
D|-12--12-12-12-----------16p13-16--13-|----------------------------------|
A|-------------14p12-------------------|----------------------------------|
E|-------------------------------------|----------------------------------|
    .      .          .          .        .      .          .           .

   E
E|-----0------0------0------0-|------0------0------0------0-|
B|----------------------------|-17h20--17h20--17h20--17h20--|
G|---------------------16h19--|-----------------------------| * (see end
D|-9h12--12h14--17h19---------|-----------------------------| comments)
A|----------------------------|-----------------------------|
E|----------------------------|-----------------------------|
    .     .      .      .        .      .      .      .

   E
E|--0--------0--------0--------0-------|--0--------0--------0-------|
B|-17h20p17-20p17h20-17h20p17-20p17h20-|-17h20p17-20p17h20-17-------|
G|-------------------------------------|----------------------------|
D|-------------------------------------|----------------------------|
A|-------------------------------------|----------------------------|
E|-------------------------------------|----------------------------|
    .        .        .        .          .        .        .     .

   E
E|--------------------------|------------------------|
B|------14----------14------|--------14--------------|
G|------14--12---12-14--14^w| =rp12---14--12----13--12|
D|---14---------------------|-----14-----------12--11|
A|--------------------------|------------------------|
E|--------------------------|------------------------|
    .    .     .     .         .      .     .   .

   E
E|-------------------------|-------------------------|
B|-------2-----------2-----|-------2-----------------|
G|-------2---0-----0-2--2^w| =rp0---2---0-------------|
D|-----2-------------------|-----2-------------0h2-0-|
A|-------------------------|-----------------0-------|
E|-------------------------|-------------------------|
    .     .     .     .       .     .     .     .

   A
E|-------------------------|-------------------------|
B|-------------------------|-------------------------|
 G ----------------------4^w|=r---2----------------4^w|
 D ------/4---2=----2-4-----|-------4---2=----2-4-----|
A|-------------------------|-------------------------|
E|-------------------------|-------------------------|
    .     .     .     .       .     .     .     .

   A
E|-------------------------|-------------------------|
B|-------------------------|-------------------------|
 G =r---2----------------4^w|=r---2-------------------|
D|-------4---2=----2-4-----|-------4---2=----2-/6--4=|
A|-------------------------|-------------------------|
E|-------------------------|-------------------------|
    .     .     .     .       .     .     .     .

   B
E|-------------------------|-------------------------|
B|-------------------------|-------------------------|
 G ----------6^wr---4-------|----------6^wr---4-------|
 D =----4-6-----------6---4=|=----4-6-----------6---4=|
A|-------------------------|-------------------------|
E|-------------------------|-------------------------|
    .     .     .     .       .     .     .     .

   B
E|-------------------------|---7--/11--11/14--14/16--16-|
B|-------------------------|----------------------------|
G|----------6^wr---4-----4=| /8----/11--11/14--14/16--16-|
 D =----4-6-----------6-----|----------------------------|
A|-------------------------|----------------------------|
E|-------------------------|----------------------------|
    .     .     .     .       .     .      .      .

 E                   D                 C                 G
I've seen all good people turn their heads each day, So satisfied I'm


   A
E|-------------------------|-------------------------|
B|-------------------------|-------------------------|
 G ----------------------4^w|=r---2-------------------|
 D -2---2-4---2=----2-4-----|-------4---2=----2-/6--4=|
A|-------------------------|-------------------------|
E|-------------------------|-------------------------|
    .     .     .     .       .     .     .     . 
   on    my    way


   B
E|-------------------------|-----------4-2-----------|
B|-------------------------|-----------------2-4p2---|
G|----------6^wr---4-------|------6^w--------------4-|
 D =----4-6-----------6---4-|-------------------------|
A|-------------------------|-------------------------|
E|-------------------------|-------------------------|
    .     .     .     .       .    .      .     .

   E                         D
 E -------------------------|-14----------------------|
 B -------------------------|-------------------------|
 G -4~----------------4/(14)|-------------------------|
 D -------------------------|-------------------------|
A|-------------------------|-------------------------|
E|-------------------------|-------------------------|
        I've seen all  good  people  turn  their


   C                         G
 E -------------------------|-----19\17---15--15-15---|
 B ------------------20-----|-------------------------|
 G ----------------------17=|/19--19\17---16--16-16---|
 D -------------------------|-------------------------|
A|-------------------------|-------------------------|
E|-------------------------|-------------------------|
    .     .     .     .       .      .    .      .
    heads  each  day,   So    satisfied      I'm


   A
E|-------------------------|-------------------------|
B|-------------------------|-------------------------|
 G ----------------------4^w|=r---2-------------------|
 D -2---2-4---2=----2-4-----|-------4---2=----2-/6--4=|
A|-------------------------|-------------------------|
E|-------------------------|-------------------------|
    .     .     .     .       .     .     .     . 
   on    my    way


   B
E|-------------------------|-------------------------|
B|-------------------------|-------------------------|
 G ----------6^wr---4----6^w|===rp4----6^w--16^w--16^w|
 D =----4-6-----------6-----|-------6-----------------|
A|-------------------------|-------------------------|
E|-------------------------|-------------------------|
    .     .     .     .       .     .     .     .

   A
E|-------------------------|-------------------------|
B|---------------------15^w| =--15^w=rp14-14--14------|
 G ==rp14-------------------|--------------------14/16|
 D -------16--14---14-16----|-------------------------|
A|-------------------------|-------------------------|
E|-------------------------|-------------------------|
    .     .     .     .       .     .     .      .

   B
 E -16-\--14----14--14------|---14------14------------|
 B -------------------------|-------------------------|
 G -16-\--14----14--14--16^w|=-----16^w-----16^wr-14--|
 D -------------------------|-------------------------|
A|-------------------------|-------------------------|
E|-------------------------|-------------------------|
    .     .     .     .       .    .        .     .

 E                   D
I've seen all good people turn their


   C                         G
 E -------------------------|-19--17--15--13--12--10--|
 B -------------------------|-------------------------|
 G -------------------------|---19--17--16--14--12--10|
 D -------------------------|-------------------------|
A|-------------------------|-------------------------|
E|-------------------------|-------------------------|
                              .     .     .     .
    heads  each  day,   So    satisfied      I'm


   A
E|-------------------------|-------------------------|
B|-------------------------|-------------------------|
 G ----------------------4^w|=r---2-------------------|
 D -2---2-4---2=----2-4-----|-------4---2=----2-/6--4=|
A|-------------------------|-------------------------|
E|-------------------------|-------------------------|
    .     .     .     .       .     .     .     . 
   on    my    way,                            yeah


   B                                            A
E|-------------------------|-------------------------|
B|-------------------------|-------------------2---2=|
G|----------6^wr---4-------|----------6^wr---4-2---2=|
 D =----4-6-----------6---4=|=----4-6-----------2---2=|
A|-------------------------|-------------------------|
E|-------------------------|-------------------------|
    .     .     .     .       .     .     .     .
   yeah

(hold A chord for 2 bars)


   B
E|-------------------------|-------------------------|
B|-4---------=-------------|-=---------=-------------|
G|-4---------=-------------|-=---------=-------------|
D|-4---------=-------------|-=---------=-------------|
A|-2-----------------------|-------------------------|
E|-------------------------|-------------------------|


(The rest of the song is organ chords)

           E         D                 C   
I've seen all good people turn their heads each day
    G            A
So satisfied I'm on my way

           D         C                Bb
I've seen all good people turn their heads each day
    F            G
So satisfied I'm on my way

           C        Bb                Ab
I've seen all good people turn their heads each day
    Eb           F
So satisfied I'm on my way

          Bb        Ab                Gb
I've seen all good people turn their heads each day
    Db           Eb
So satisfied I'm on my way


(fade)

E|E|E|-----------------------------------------------------------------------------|||
Notes:
00:00 / 00:00
Outros vídeos desta música
Repetir
Outros vídeos desta música
56 exibições
    • ½ Tom
    • Am
    • Bbm
    • Bm
    • Cm
    • C#m
    • Dm
    • Ebm
    • Em
    • Fm
    • F#m
    • Gm
    • G#m
  • Adicionar à lista

Afinação da cifra

Afinador online

    0 comentários

    Ver todos os comentários

    Entre para o Cifra Club PRO

    Tenha acesso a benefícios exclusivos no App e no Site

    • Chega de anúncios

    • Mais recursos no app do Afinador

    • Atendimento Prioritário

    • Aumente seu limite de lista

    • Ajude a produzir mais conteúdo

    00:00 / 00:00

    Cifra Club Pro

    Aproveite o Cifra Club com benefícios exclusivos e sem anúncios
    Cifra Club Pro
    Aproveite o Cifra Club com benefícios exclusivos e sem anúncios
    OK