Cifra Club

Aprenda

Prelude To April

Yngwie Malmsteen

Cifra: Principal (violão e guitarra)
tom: G
  parte 1 (C)                                                    parte 2 (Bm)
E|-------------------------------------------------------------|-------------------------------
B|-7-----7---8---5-------5------5-------5---7---4h5h4h5h5h4h5--|3------3---5---5h3------2-------
G|--5---5--5---5---5---5--5---5---5---5---5---5---------------4|---4---4--4---4----4---4---3---3-
D|---5--------------5------5-------4---------------------------|---4---------------4--------4---
A|-------------------------------------------------------------|--------------------------------
E|-------------------------------------------------------------|--------------------------------

                                      parte 3 (Am)                                  parte 4 (C)
E|-----5-------------------------5--|--------7h8h7h5-----------0-------------3-7-7|---------------
B|-2-3---3---2h3h2h3h2h3-------2---2|------5---------5-------0---0-------5--------|12-------12----
G|-----------------------2---2------|-----5------------5----2------2----4--4------|--10---10---10-
D|-------------------------2--------|---7------------------2---------4s5----------|-----10--------
A|----------------------------------|-0-------------------------------------------|---------------
E|----------------------------------|--------------------0------------------------|---------------

                                                                                  (Em)
E|------------------------------------------------------------------------------|-----------------
B|-13----10----------10--------10--------10---12---10--------9h10h9h10h9h10h9---|8------8---10---
G|----10----10----10----10---10---10---10---10---10---10---10-------------------|-9---9---9----9-
D|-------------10---------10---------9-------------------9---------------------9|---9------------
A|------------------------------------------------------------------------------|----------------
E|------------------------------------------------------------------------------|----------------

                                                                 (Dm)
E|------------------------10-----------------------------------|-----------------5----------------
B|-10h9-------7-------7-8----8--7h8h7h8h7h8-----7h8h7h8h7h8----|-6-------6---8----5---------6-----
G|------9---9---8---8-----------------------7---------------7--|---7---7---7---7---6----------7---
D|--------9-------9---------------------------7---------------7|-----7--------------7-----------7-
A|-------------------------------------------------------------|----------------------7-5-4-------
E|-------------------------------------------------------------|----------------------------5-----
                                                      (Am)harmonica
E|-------------------------5------------9----9-12-17|-13h12h10-------------------------------------
B|-6-------6---8---------5---5---5---10---10--------|----------13-12-10-9-10-----------------------
G|---7---7---7---7-----7-------7---9----------------|------------------------9---------------------
D|-----7-------------7------------------------------|--------------------------10------------------
A|--------------------------------------------------|-----------------------------11-12-7-8-7-7----
E|-----------------5--------------------------------|----------------------------------------------
   (c)                                                                     (Bm)
E|-----------------------------------------------------------------------|---------------------
B|-7--------7---8---5-------5-------5-------5---7---5-------4h5h4h5h4h5--|-3-------3---5---5h3-
G|---5---5----5---5---5---5---5---5---5---5---5---5---5---5-------------4|---4---4---4---4-----
D|-----5----------------5-------5-------4---------------4----------------|-----4---------------
A|-----------------------------------------------------------------------|---------------------
E|-----------------------------------------------------------------------|---------------------
                                          (Am)              (Em)
E|-------------------5-----------5------|---------5------|------------7-12-7-8----7----------------
B|---------------2-3---3-2-----2---2----|-------5---5----|----------8----------10---8---8-7--------
G|-4---4-6-3---3-------------2-------2--|-----5-------5--|--------9-------------------9-----9-8-9--
D|---4-------4-------------2-----------2|---7-----------7|------9----------------------------------
A|--------------------------------------|-0--------------|-7-10------------------------------------
E|--------------------------------------|----------------|-----------------------------------------

                             solo (Gm) harmonico
E|--------------------------|---------------10-15-10-11--10--------------------------------------
B|--------------------------|-------------11-----------13--11-13-10-11----10---------------------
G|-h4h5h4-------------------|----------12------------------------------12----11-12-8-11-7-8----7-
D|--------h1h4h2------------|-------12------------------------------------------------------10---
A|--------------h2h3h2------|-10-13--------------------------------------------------------------
E|--------------------h2h0--|--------------------------------------------------------------------

E|------------------------------------------------------------------------8-10-1-10-8----10-8----
B|----------------------------------------------------------------8-10-11-------------11------11-
G|-----8-7-------7-----------------------------------------7-8-10--------------------------------
D|--10-----10-8----10-8-7-10-8-7-10-8-7---7----7h8h7-5-7-8---------------------------------------
A|--------------------------------------9---10---------------------------------------------------
E|-----------------------------------------------------------------------------------------------

E|------------8-10-11-10-8----10-8----8-10-11-14-10-11-14--15-11-14-15-17-11-15-17-18-15-17-18-20
B|-10-8-10-11--------------11------11------------------------------------------------------------
G|-----------------------------------------------------------------------------------------------
D|-----------------------------------------------------------------------------------------------
A|-----------------------------------------------------------------------------------------------
E|-----------------------------------------------------------------------------------------------

E|-17-18-20-18-17-15-18-27-14-17-15h14h1517h18h15h17-15-14h15-11-14-10-11----10-------------------
B|------------------------------------------------------------------------13----11-13-10-11----11-
G|------------------------------------------------------------------------------------------12----
D|------------------------------------------------------------------------------------------------
A|------------------------------------------------------------------------------------------------
E|------------------------------------------------------------------------------------------------

E|-------------10-11-13-10-11----10----------------------------------------------------------------
B|-10-------11----------------13----11-13-11-10-11-10----10----------10-11-13-13-11-10-------------
G|----11-12-------------------------------------------12----12-11-12-------------------12-10-------
D|-------------------------------------------------------------------------------------------13-12-
A|-------------------------------------------------------------------------------------------------
E|-------------------------------------------------------------------------------------------------

E|---------------------------------------------------------------------------------------6-10-8-6---
B|-------------------------------------------------------------------------------------8----------10
G|-12h10----------------------------10-----------------------------------------------7--------------
D|-------13-12-10----------10-12-13----13-12-10----------------10h12h10------------8----------------
A|----------------13-12-13----------------------13-12-10-12-13----------13-12-10-10-----------------
E|--------------------------------------------------------------------------------------------------

E|-8-6---------6-8-|---------------------8-10-11-10-8-10-15-14-17-17b(20)h15-15-15-14h15h14h15h14h15
B|-----10-8-10-----|-------------8-10-11------------------------------------------------------------
G|-----------------|------7-8-10--------------------------------------------------------------------
D|-----------------|-5-7-8--------------------------------------------------------------------------
A|-----------------|--------------------------------------------------------------------------------
E|-----------------|--------------------------------------------------------------------------------
        (Dm)harmonico                                        (C)
E|-14-|----------10-13h10------------10-12-9-10-12-9-12-10-|--------------------------------------
B|----|-------10---------10-------10-----------------------|-12----------12----13---10---------10-
G|----|----10------------------10--------------------------|----10----10----10---10---10----10----
D|----|-12------------------12-----------------------------|-------10--------------------10-------
A|----|----------------------------------------------------|--------------------------------------
E|----|----------------------------------------------------|-------------------------------------

E|----------------------------------------------------------------------------------10---
B|----------10---------10----12----10---------9h10h9h10h9h10----8-------7-------7-8----8-
G|-10----10----10---10----10----10----10---10----------------9----9---9---8---8----------
D|----10----------9----------------------9--------------------------9-------9------------
A|---------------------------------------------------------------------------------------
E|---------------------------------------------------------------------------------------
                                      (Dm)
E|----------------------------------|-----------------5----------------------------------
B|-7h8h7h8h7h8------7h8h7h8h7h8-----|-6-------6---8-----5----------------6-------6---8----
G|-------------7----------------7---|---7---7---7---7-----6----------------7---7---7---7-
D|---------------7----------------7-|-----7-----------------7----------------7-----------
A|----------------------------------|------------------------7-5h7h5-4-------------------
E|----------------------------------|----------------------------------5------------------
                                                (Am)
E|----------5-----------5-9-12-9--------------|---------------12-17-13-12--------------------
B|--------5---5---5---5----------10---10---10-|------------13------------15-13-12-15-13-12---
G|------7-------7---6---------------9---9-----|----------14-------------------------------14-
D|----7---------------------------------------|--------14------------------------------------
A|--------------------------------------------|--12-15---------------------------------------
E|-5------------------------------------------|----------------------------------------------
                             (C)
E|-------------------------|--------------------------------------------------------------------
B|-13-12----13-12----------|-7--------7---8---5-------5-------5-------5---7---5-------45h4h5h4h5
G|-------14-------14-13-14-|---5----5---5---5---5---5---5---5---5---5---5---5---5---5-----------
D|-------------------------|-----5----------------5-------5-------4---------------4-------------
A|-------------------------|--------------------------------------------------------------------
E|-------------------------|--------------------------------------------------------------------
    (Bm)                                                      (Am)              (Em)
E|---------------------------------------5----------5-------|---------5-------|-----------------
B|-3-------3---5---5h3---------------2-3---3------2---2-----|-------5---5-----|-----------------
G|---4---4---4---4-----4---4-6-3---3------------2-------2---|-----5-------5---|-----------------
D|-----4-----------------4-------4-----------2------------2-|---7-----------7-|-2-4-2-1-2-1-2-4-
A|----------------------------------------------------------|-0---------------|-----------------
E|----------------------------------------------------------|-----------------|-----------------

E|--------------------------------------------------------------------------------------------
B|--------------------------------------------------------------------------------------------
G|-------------------------------------------------2-3-6-4-3-4s9-11-9-8-9-8-9-11-9-8-9-8-9-11-
D|-2-1-2-1-2-4-2-1-2-1-4-2-1-2-1-2-4-2-4-5-4-2-4-5--------------------------------------------
A|--------------------------------------------------------------------------------------------
E|--------------------------------------------------------------------------------------------

E|-------------------------------------------------------------------12-10-8-7-10-8-7----8-7---
B|------------------------------------11-14-12-11--12-11-12~-17-17-17-----------------10-----10
G|-9-8-9-8-9-11-9-11-12-11-9-11-12-14----------------------------------------------------------
D|---------------------------------------------------------------------------------------------
A|---------------------------------------------------------------------------------------------
E|---------------------------------------------------------------------------------------------

E|------------------7-8-7-5-7-5-------8-7--5harm-------------12harm--||
B|-8-7-8-5-5-7-8-10-------------8-7-------------------7harm----------||
G|------------------------------------8-9------5harm-----------------||
D|-------------------------------------------------------------------||
A|-------------------------------------------------------------------||
E|-------------------------------------------------------------------||
Composição de Yngwie Malmsteen
Colaboração e revisão:
  • lucas oliveira
1.553 exibições
    • ½ Tom
    • A
    • Bb
    • B
    • C
    • Db
    • D
    • Eb
    • E
    • F
    • F#
    • G
    • Ab
  • Adicionar à lista

    0 comentários

    Ver todos os comentários

    Conseguiu tocar?

    1 Tocaram 0 Ainda não

    Grave um vídeo tocando Prelude To April e nos envie!

    00:00 / 00:00
    outros vídeos desta música
    repetir qualidade Automático
    Outros vídeos desta música
    00:00 / 00:00
    Automático

    Cifra Club Pro

    Aproveite o Cifra Club com benefícios exclusivos e sem anúncios
    Cifra Club Pro
    Aproveite o Cifra Club com benefícios exclusivos e sem anúncios
    OK