Cifra Club

Senhorita

Zé Geraldo

Cifra: Principal (violão e guitarra)
Tom: D
D                    G                     D
Minha meiga senhorita eu nunca pude lhe dizer
G                     D
Você jamais me perguntou
C          G                 D
de onde eu venho e pra onde vou
           A            G            D
De onde eu venho não importa, já passou
         A         G            D     C  G  D
O que importa é saber pra onde vou

                     G                       D
Minha meiga senhorita o que eu tenho é quase nada
G                     D
Mas tenho o sol como amigo
C            G                  D
Traz o que é seu e vem morar comigo
       A                G                   D
Uma palhoça no canto da serra será nosso abrigo
              A           G                   D
Traz o que é seu e vem correndo, vem morar comigo  
                        
A                              G
Aqui é pequeno mas dá pra nós dois
                                    D
E se for preciso a gente aumenta depois
A                                  G
Tem um violão que é pra noites de lua
                                    D
Tem uma varanda que é minha e que é sua
C      G     D               C     G
Vem morar comigo meiga senhorita
             D
Vem morar comigo    
     
[Solo] D  G  A  Bm  C  Bm  A  D  D  G  A  Bm  C  Bm  A  D

E|-----------------------------------------------------------------|
B|-s14--14p15-14---------------------------------------------------|
G|---------------14------------------------------------------------|
D|------------------14--14-16-17--14p16s12-12----------------------|
A|--------------------------------------------12p14-12----12-14-12-|
E|-----------------------------------------------------14----------|

E|-------------14--------------------------------------------------|
B|-17-15-14-17----15-----------------------------------------------|
G|-------------------14P16--14----14-16-14-------------------------|
D|-----------------------------16----------------------------------|
A|-----------------------------------------------------------------|
E|-----------------------------------------------------------------|

A                              G
Aqui é pequeno mas dá pra nós dois
                                    D
E se for preciso a gente aumenta depois
A                                  G
Tem um violão que é pra noites de lua
                                    D
Tem uma varanda que é minha e que é sua
C      G     D               C     G
Vem morar comigo meiga senhorita
C      G     D               C     G
Vem morar comigo meiga senhorita

             D
Vem morar comigo
C      G     D               C     G
Vem morar comigo meiga senhorita
C      G     D               C     G
Vem morar comigo meiga senhorita
exibições 482.525
Acordes para:
    Composição: Zé Geraldo Colaboração e revisão:

    0 comentários

    mostrar mais comentários

    Conseguiu tocar?

    41 tocaram 4 ainda não

    Grave um vídeo tocando Senhorita e mande pra gente!

    00:00 / 00:00
    outros vídeos desta música
    repetir qualidade Automático
    Outros vídeos desta música
    00:00 / 00:00
    Automático
    OK