Charlie Brown Jr

Charlie Brown Jr.

 Charlie Brown Jr.
Intro

G----------------------------
D--------6------------------- 3x
A---6-----4-6----------------
E----------------------------

G-----------------------------
D--------6-------------------- 1X
A---6-------------------------
E-----------------------------

BASE...ENTRA NA MUSICA (MUITA GENTE RIU D MIM...)

G-------------------------
D---------4/6--444-6666--- 4X
A------4/6---6------------
E---44--------------------


 VOLTA NA INTRO

(CHARLIE BROW CUZÃO....)  

G----------------------------
D--------6------------------- 1X
A---6-----4-6----------------
E----------------------------

G-----------------------------
D--------6-6-6-6-------------- 1X
A---6-------------------------
E-----------------------------

VOLTA A BASE

G-------------------------
D---------4/6--444-6666--- 2X
A------4/6---6------------
E---44--------------------

Refrão
(DEIXE ESTAR QUI EU ...)

G--------------------------------
D-------------------------------- 4X
A---6666-666---------------------
E------------4-44-0-2-22-0-2-0-2-

volta na intro

G----------------------------
D--------6------------------- 1X
A---6-----4-6----------------
E----------------------------

G-----------------------------
D--------6-6-6-6-------------- 1X
A---6-------------------------
E-----------------------------

base novamente 

(muita gente rio d mim...)



G-------------------------
D---------4/6--444-6666--- 4X
A------4/6---6------------
E---44--------------------

intro novamente

G----------------------------
D--------6------------------- 1X
A---6-----4-6----------------
E----------------------------

G-----------------------------
D--------6-6-6-6-------------- 1X
A---6-------------------------
E-----------------------------

base novamente 

G-------------------------
D---------4/6--444-6666--- 2X
A------4/6---6------------
E---44--------------------

refão

G--------------------------------
D-------------------------------- 4X
A---6666-666---------------------
E------------4-44-0-2-22-0-2-0-2-

aga tem uma para d bet box ae é o solo da guit ae vc toca a base 

G-------------------------
D---------4/6--444-6666--- 4X
A------4/6---6------------
E---44--------------------

depois refão novamente

G--------------------------------
D-------------------------------- 4X
A---6666-666---------------------
E------------4-44-0-2-22-0-2-0-2-

agora é o solo d baixo

G---20--18--15--11--13--11-18------
D---------------------------------- 4X
A---18--16--13--9--11--9--16-------
E----------------------------------

DEPOIS REFÃO ATÉ O FIM DA MUSICA


G--------------------------------
D-------------------------------- 4X
A---6666-444---------------------
E------------4-44-0-2-22-0-2-0-2-

Comentários 0

Composição: Guilermo Pelado
Esse não é o compositor? Avise-nos.
Contribuição: pedrinhu
publicidade
fechar