Admirável Chip Novo

Pitty

 Pitty
Tom: C
		
(intro)

(power chord)

E|----------------|----------------|----------------|--------------|
B|----------------|----------------|----------------|--------------|
G|-0-0-0-0--5--7--|-0-0-0-0--3--2--|-0-0-0-0--5--7--|-2--3--5-3-2--|
D|-0-0-0-0--5--7--|-0-0-0-0--3--2--|-0-0-0-0--5--7--|-2--3--5-3-2--|
A|-0-0-0-0--3--5--|-0-0-0-0--1--0--|-0-0-0-0--3--5--|-0--1--3-1-0--|
E|-0-0-0-0--0--0--|-0-0-0-0--0--0--|-0-0-0-0--0--0--|-0--0--0-0-0--|


(dedilhado)

E|-5---------------------|----------5--------5----------------------|
B|----6----8--6--5-5--6--|-3--6--3-----6--3-----6-----8--6--5-5--6--|
G|-------7---------------|-------------------------5----------------|
D|-----------------------|------------------------------------------|
A|-----------------------|------------------------------------------|
E|-----------------------|------------------------------------------|

         (1x)                               (3x)     (2ª vez - D5 F5 E5 D#5 - abafado)

D5 (soa o acorde)
Pane no sistema alguem me desconfigurou

(dedilhado até o fim do verso)

Aonde estão os meus olhos de robo
Eu não sabia, eu não tinha percebido
Eu sempre achei que era vivo
D5
Parafuso e fluido em lugar de articulação
F5              E5           D#5
Até achava que aqui batia um coração
D5
Nada é orgânico, é tudo programado
F5               E5            D#5
E eu achando que tinha me libertado
D5 (deixe soar)
Mas la vem eles novamente, eu sei o que vão fazer
  (pare de soar as cordas)
Reinstalar o sistema

(riff 1)

E|-------------|
B|-------------|
G|-------------|
D|-------------|
A|-------------|
E|--3-3h5-3-2--|


D5                     F5        E5       D#5
Pense,Fale,Compre,Beba,Leia,Vote,não se esqueça
D5                 F5         E5      D#5
Use,Seja,Ouça,Diga,tenha,more,gaste e viva
D5                     F5        E5       D#5
Pense,Fale,Compre,Beba,Leia,Vote,não se esqueça
D5                  F5 E5 D#5
Use,Seja,Ouça,Digaaaa

(solo)

E|-------------15--------------15---------------|--------------15----------|
B|-----15--------------15-------------15----15--|------15--------------15~-|
G|-12------12------12------12------12----12-----|--12------12------12------|
D|----------------------------------------------|--------------------------|
A|----------------------------------------------|--------------------------|
E|----------------------------------------------|--------------------------|
                 (3x)                                       (1x)

não senhor ,sim senhor, não senhor, sim senhor

(riff 1)
(intro)

D5   (soa o acorde uma vez sem dedilhar)
Pane no sistema alguem me desconfigurou

(dedilhado até o fim do verso)

Aonde estão os meus olhos de robo
Eu não sabia, eu não tinha percebido
Eu sempre achei que era vivo
D5
Parafuso e fluido em lugar de articulação
F5              E5           D#
Até achava que aqui batia um coração
D5
Nada é orgânico, é tudo programado
F5               E5            D#5
E eu achando que tinha me libertado
D5  (soa o acorde uma vez sem dedilhar)
Mas la vem eles novamente, eu sei o que vão fazer
Reinstalar o sistema

(riff 2)

E|-------------------|
B|--3--3--x--2--3-3--|
G|--2--2--x--2--2-2--|
D|-------------------|
A|-------------------|
E|-------------------|


(riff 1)
D5                    F5        E5       D#5
Pense,Fale,Compre,Beba,Leia,Vote,não se esqueça
D5                 F5         E5      D#5
Use,Seja,Ouça,Diga,tenha,more,gaste e viva
D5                     F5        E5       D#5
Pense,Fale,Compre,Beba,Leia,Vote,não se esqueça
D5                  F5 E5 D#5
Use,Seja,Ouça,Digaaaa

(solo)

E|-------------15--------------15---------------|--------------15----------|
B|-----15--------------15-------------15----15--|------15--------------15~-
G|-12------12------12------12------12----12-----|--12------12------12------|
D|----------------------------------------------|--------------------------|
A|----------------------------------------------|--------------------------|
E|----------------------------------------------|--------------------------|

Não senhor , sim senhor, não senhor, sim senhor...

Dm (deixe soar)
Mas la vem eles novamente, eu sei o que vão fazer
Reinstalar o sistema

Comentários 9

  • Thaís Thaís: Postado em 18/11/2014 15:37

    Fodasticamente boa! ^^

  • David Rodrigues de oliveira David Rodrigues de oliveira: Postado em 12/03/2014 14:03

    esta musica não é dificil tocar , eu dropei minha guitarra em D ficou igualzinho vlw !!

  • douglas douglas: Postado em 18/01/2014 13:08

    Mano a musica do vídeo player não é a Admirável Chip Novo......rs ! Arruma aeee.

  • Thaís Thaís: Postado em 09/06/2013 09:09

    Muito boa a música e a referência.

  • Leety Leety: Postado em 03/06/2013 15:50

    Se tu for tocar na guitarra, vale a pena baixar a tablatura do Guitar Pro e conferir a versão lá!

  • vanessa.rutthy vanessa.rutthy: Postado em 18/04/2013 11:17

    Nosso mundo eh assim uns mandam e nos obedecemos

  • Victor Victor: Postado em 25/01/2013 21:57

    Uma dica eh abaixar dois tons na MI e fazer pestanas nesses power chords que tem aí

  • solelrecanto solelrecanto: Postado em 13/01/2013 09:27

    ADOREI,FOI A PRIMEIRA MUSICA QUE EU COJSEGUI TOCAR NO VIOLAO

  • DUDU DUDU: Postado em 29/10/2011 23:12

    ae, pra quem n sabe, drop em D na corda MI :D

Composição: André Mingau / Anthony Scott / Pitty
Esse não é o compositor? Avise-nos.
Contribuição: nogueiratiago Correções: Noel , aridson e mais 5 »
Exibir acordes »
publicidade
fechar