Memórias

Pitty

 Pitty
Tom: F
		
Intro 4x: G5 

Verso:

G5
 Eu fui matando os meus heróis aos poucos,
C5                      F5        D5
Como se já não tivesse nenhuma lição pra aprender

Passagem 4x: G 

Verso:


E|-6-------10-----6------8---------|
B|---8-------8------8-----8--------|
G|-----7------7-------7----7-------|
D|---------------------------------|
A|---------------------------------|
E|---------------------------------|


G5*
Eu sou uma contradição   
        C5                           F5               D5              G5*
E foge da minha mão fazer com que tudo o que eu digo faça algum sentido 
                                   C5                          F5          D5
Eu quis me perder por aí fingindo muito bem que eu nunca precisei de um lugar só meu

Refrão:

   G5
Memórias, não são só memórias 
Bb5                               A5
São fantasmas que me sopram os ouvidos coisas que eu...

Passagem 4x: G5 

Verso:


E|-6-------10-----6------8---------|
B|---8-------8------8-----8--------|
G|-----7------7-------7----7-------|
D|---------------------------------|
A|---------------------------------|
E|---------------------------------|


G5*
Eu dou sempre o melhor de mim
          C5                       F5           D5             G5*
E sei que só assim é que talvez se mova alguma coisa ao meu redor
                                 C5                            F5        D5
Eu vou despedaçar você todas as vezes que eu lembrar por onde você já andou sem mim

Refrão:

   G5
Memórias, não são só memórias 
Bb5                               A5
São fantasmas que me sopram os ouvidos coisas que eu...
   G5
Memórias, não são só memórias 
Bb5                               A5
São fantasmas que me sopram os ouvidos coisas que eu nem quero saber

Solo: G5  G5  Bb5  A5  G5  G5  G5  Bb5  A5


E|---------------------------------|--------------------------------------------|
B|------------8--------------------|----------8--10--10/11--------11------------|
G|-12-7-7-5-7---7-2/3-3/7-77777777-|-12-7-5-7-----------------10----10-7~--9/11~|
D|---------------------------------|------------------------8----8----8---------|
A|---------------------------------|--------------------------------------------|
E|---------------------------------|--------------------------------------------|


Baixo 4x: G5 

Verso:


E|-6-------10-----6------8---------|
B|---8-------8------8-----8--------|
G|-----7------7-------7----7-------|
D|---------------------------------|
A|---------------------------------|
E|---------------------------------|


G5*
Eu sou uma contradição   
        C5                           F5               D5              G5*
E foge da minha mão fazer com que tudo o que eu digo faça algum sentido 
                                   C5                          F5          D5
Eu quis me perder por aí fingindo muito bem que eu nunca precisei de um lugar só meu

Refrão:

   G5
Memórias, não são só memórias 
Bb5                               A5
São fantasmas que me sopram os ouvidos coisas que eu...
   G5
Memórias, não são só memórias 
Bb5                               A5                              G5 G5
São fantasmas que me sopram os ouvidos coisas que eu nem quero saber
        G5
Nem quero saber

Final 6x: G5 

Comentários 15

  • Leety Leety: Postado em 28/12/2013 16:12

    Baixem o arquivo que roda no guitar pro que tá bem legal

  • Kássia Kássia: Postado em 09/08/2013 22:31

    ritmo?? :c

  • Black Bird Black Bird: Postado em 15/04/2012 13:52

    treina mais teu ouvido ae manolo..
    o solo ta ok, mas o resto...

  • xxdanielmetalxx xxdanielmetalxx: Postado em 03/03/2012 21:13

    aff..cada merda que eu so obrigado a ler o galera a musica ta correta e os tonto que nao sabe toca e fica falando babaquisse...i love pitty

    • austin150 austin150: Postado em 17/12/2013 20:18

      Cara tá tudo errado nessa "coisa" porque não dá pra chamar de cifra.

  • jixx jixx: Postado em 10/02/2012 16:49

    galera ai ta presizando aprende um poko sobre musica neh -.- ta toda certa essa musica eu tirei todinha n tem nada errado -.-

  • guh_xd guh_xd: Postado em 10/01/2012 15:37

    video aula !!! ta uma merda isso ai

  • digotankian digotankian: Postado em 26/12/2011 01:01

    QUEM FEZ ESSA CIFRA É UM BABACA

    • slipknot62 slipknot62: Postado em 10/02/2012 00:28

      como você é burro e ignorante , é só fazer em acorde de guitarra (power chord) vai saber mais sobre teoria musical BABACA

    • austin150 austin150: Postado em 17/12/2013 20:19

      Power chord não adiamta quando o tom está errado.

Exibindo 10 de 15 comentários Mostrar mais ver todos »
Composição: André Mingau / Anthony Scott / Pitty
Esse não é o compositor? Avise-nos.
Contribuição: Gabi.ROQUE_Pitty Correções: luuhknot , ELIAS e mais 3 »
Exibir acordes »
publicidade
fechar