Máscara

Pitty

 Pitty
Tom: F
		
Intro 2x:


E|----------------------|----------------------|
B|----------------------|----------------------|
G|----------------------|----------------------|
D|--0-0---3----6-5-3----|--0-0---6--6-6-6------|
A|--0-0---3----6-5-3----|--0-0---6--6-6-6------|
D|--0-0---3----6-5-3----|--0-0---6--6-6-6------|



E|----------------------|----------------------|
B|----------------------|----------------------|
G|----------------------|----------------------|
D|--0-0---3----6-5-3----|--0-0---1--1-1-1------|
A|--0-0---3----6-5-3----|--0-0---1--1-1-1------|
D|--0-0---3----6-5-3----|--0-0---1--1-1-1------|


Verso:


E|---0--3-6-5-3--------------------------------|
B|---0--3-6-5-3--------------------------------|
G|---0--3-6-5-3--------------------------------|
D|---------------------------------------------|
A|---------------------------------------------|
D|---------------------------------------------|


Pré-Refrão:


E|---------------------------|
B|---------------------------|
G|---------------------------|
D|------0-----1----0-0-------|
A|------0-----1----0-0-------|
D|------0-----1----0-0-------|


Refrão:


E|--------------------------------------------------------------------|
B|--------------------------------------------------------------------|
G|--------------------------------------------------------------------|
D|--0-0-0-0--0--3-3-3-3--3--5-5-5-5--5--8--8--8--8--------------------|
A|--0-0-0-0--0--3-3-3-3--3--5-5-5-5--5--8--8--8--8--------------------|
D|--0-0-0-0--0--3-3-3-3--3--5-5-5-5--5--8--8--8--8--------------------|


Bb                    Gm
O importante é ser você
Bb                  Gm
mesmo que seja estranho,seja você
Bb               Gm               Bb
mesmo que seja bizarro,bizarro,bizarro
                 Gm
mesmo que seja estranho,seja você
Bb                Gm
Mesmo que seja

(Intro)

Verso:

Gm     F5 Gm
Tira
Gm                                 F5 Gm
A máscara que cobre o seu rosto
Gm                                    F5 Gm
Se mostre e eu descubro se eu gosto
Gm                                    F5
Do seu verdadeiro jeito de ser

Pré-Refrão:

Bb            Am Bb
Ninguém merece ser só mais um bonitinho
Bb             Am Bb
Nem transparecer...consciente conseqüente
Bb           Am Bb
Sem se preocupar em ser, adulto ou criança

Refrão:


E|--------------------------------------------------------------------|
B|--------------------------------------------------------------------|
G|--------------------------------------------------------------------|
D|--0-0-0-0--0--3-3-3-3--3--5-5-5-5--5--8--8--8--8--------------------|
A|--0-0-0-0--0--3-3-3-3--3--5-5-5-5--5--8--8--8--8--------------------|
D|--0-0-0-0--0--3-3-3-3--3--5-5-5-5--5--8--8--8--8--------------------|


Bb                    Gm
O importante é ser você
Bb                  Gm
mesmo que seja estranho,seja você
Bb               Gm               Bb
mesmo que seja bizarro,bizarro,bizarro
                 Gm
mesmo que seja estranho,seja você
Bb                Gm
Mesmo que seja


E|---------------------------------------------------------|
B|---------------------------------------------------------|
G|---------------------------------------------------------|
D|---6--5--3--0---5-6--5--3--0---6--5--3--0---5-6--5--3--0-|  2x
A|---6--5--3--0---5-6--5--3--0---6--5--3--0---5-6--5--3--0-|
D|---6--5--3--0---5-6--5--3--0---6--5--3--0---5-6--5--3--0-|

Gm          F5 Gm
Meu cabelo não é igual
Gm           F5 Gm
a sua roupa não é igual
Gm              F5 Gm
ao meu tamanho não é igual
Gm              F5 Gm
ao seu caráter não é igual
Gm     F5 Gm      F5 Gm          F5 Gm
não é igual,não é igual,não e iguaaaaaaal

Dedilhado:


E|------------------------------------|-------------------------------------|
B|------------------------------------|-------------------------------------|
G|-----9----9-------------------------|-----9----9-------10------10---------|
D|--12---12----------10------10-------|--12---12------10-------10--10-------|
A|-------------8--12----8-12----------|-------------8-----------------------|
E|------------------------------------|-------------------------------------|



E|------------------------------------|-------------------------------------|
B|------------------------------------|-------------------------------------|
G|-----9----9-------------------------|-----9----9-------10------10---------|
D|--12---12----------10------10-------|--12---12------10-------10--10-------|
A|-------------8--12----8-12----------|-------------8-----------------------|
E|------------------------------------|-------------------------------------|

  I had enough of it, but I don't care     I had enough of it, but I don't care


E|------------------------------------|-------------------------------------|
B|------------------------------------|-------------------------------------|
G|-----9----9-------------------------|-----9----9--10~--------9~-----------|
D|--12---12----------10------10-------|--12---12----10~--------10~----------|
A|-------------8--12----8-12----------|-------------8~---------8~-----------|
E|------------------------------------|-------------------------------------|

  I had enough of it, but I don't care     I had enough of it, but I dooon't


E|-------------------1212121212121212-|
B|-------------------x-x-x-x-x-x-x-x--|
G|-9-9-9-9-9-9-9-9---1010101010101010-|
D|-1212121212121212-------------------|
A|------------------------------------|
E|------------------------------------|

  caaaaaaaaaaaaaaaaaaaaaaaaaaaaaaaare

Verso:

Gm    F5 Gm
Diga
Gm           Gm           F5 Gm
quem você é, me diga
Gm                         F5 Gm
Me fale sobre sua estrada
Gm                         F5 Gm
Me conte sobre sua vida
Bb                    Gm
O importante é ser você
Bb                  Gm
mesmo que seja estranho,seja você
Bb               Gm               Bb
mesmo que seja bizarro,bizarro,bizarro
                 Gm
mesmo que seja estranho,seja você
Bb                Gm
Mesmo que seja

(Pré-Refrão)

Comentários 31

  • Alice Alice: Postado em 19/01/2015 19:23

    facil u.u

  • victoria.horacio victoria.horacio: Postado em 19/12/2014 09:22

    Cadê a video aula?

  • johnnyxp johnnyxp: Postado em 28/05/2014 18:43

    Fica muito melhor tocando a intro assim: E > G > A#--A-G > Repete.

  • isabelly isabelly: Postado em 31/03/2014 21:37

    tira, a mascara que cobre o seu rosto...

  • isabelly isabelly: Postado em 31/03/2014 21:31

    mesmo que seja estranho, seja vc acabei de beber a M u s i c a \_/

  • isabelly isabelly: Postado em 31/03/2014 21:30

    adorooooooooooooooo

  • matheus.augusto.961556 matheus.augusto.961556: Postado em 15/12/2013 11:15

    faz uma video aula pra ela, quero ela no violao

  • joana.pagliarin joana.pagliarin: Postado em 07/12/2013 20:42

    qual é o ritmo ?

  • Leety Leone Leety Leone: Postado em 30/01/2013 20:40

    Mtoo fácil a música, mais só não se esqueçam do DROP D ook?!! Fica esquisita sem dropar!

  • doopinho doopinho: Postado em 09/10/2012 16:38

    To na duvida, nao sei oque tocar quando entra no vocal.. tem como alguem ajudar ai? VALEU

Exibindo 11 de 31 comentários Mostrar mais ver todos »
Composição: André Mingau / Anthony Scott / Pitty
Esse não é o compositor? Avise-nos.
Contribuição: alohmann Correções: victorenzo.vasconcelos , Roreck e mais 9 »
Exibir acordes »
publicidade
fechar