Máscara

Pitty

 Pitty
Tom: F
		
Intro 2x:


E|--------------------------|--------------------------|
B|--------------------------|--------------------------|
G|--------------------------|--------------------------|
D|--0---0-0---3----6-5-3----|--0---0-0---6--6-6-6------|
A|--0---0-0---3----6-5-3----|--0---0-0---6--6-6-6------|
D|--0---0-0---3----6-5-3----|--0---0-0---6--6-6-6------|



E|--------------------------|--------------------------|
B|--------------------------|--------------------------|
G|--------------------------|--------------------------|
D|--0---0-0---3----6-5-3----|--0---0-0---1--1-1-1------|
A|--0---0-0---3----6-5-3----|--0---0-0---1--1-1-1------|
D|--0---0-0---3----6-5-3----|--0---0-0---1--1-1-1------|


Verso:

Gm    F5 Gm
Diga
Gm           Gm           F5 Gm
quem você é, me diga
Gm                         F5 Gm
Me fale sobre sua estrada
Gm                         F5 Gm
Me conte sobre sua vida
Gm     F5 Gm
Tira
Gm                                 F5 Gm
A máscara que cobre o seu rosto
Gm                                    F5 Gm
Se mostre e eu descubro se eu gosto
Gm                                    F5
Do seu verdadeiro jeito de ser

Pré-Refrão:


E|--------------------------|
B|--------------------------|
G|--------------------------|
D|------0-----1----0--------|
A|------0-----1----0--------|
D|------0-----1----0--------|


Bb            Am Bb
Ninguém merece ser só mais um bonitinho
Bb             Am Bb
Nem transparecer...consciente conseqüente
Bb           Am Bb
Sem se preocupar em ser, adulto ou criança

Refrão:


E|------------------------------------------------------------|
B|------------------------------------------------------------|
G|------------------------------------------------------------|
D|--0-0-0-0--3-3-3-3--5-5-5-5---8--8--8--8--------------------|
A|--0-0-0-0--3-3-3-3--5-5-5-5---8--8--8--8--------------------|
D|--0-0-0-0--3-3-3-3--5-5-5-5---8-8-8-8--8--------------------|


Bb                    Gm
O importante é ser você
Bb                  Gm
mesmo que seja estranho,seja você
Bb               Gm               Bb
mesmo que seja bizarro,bizarro,bizarro
                 Gm
mesmo que seja estranho,seja você
Bb                Gm
Mesmo que seja

(Intro)

Verso:

Gm     F5 Gm
Tira
Gm                                 F5 Gm
A máscara que cobre o seu rosto
Gm                                    F5 Gm
Se mostre e eu descubro se eu gosto
Gm                                    F5
Do seu verdadeiro jeito de ser

Pré-Refrão:

Bb            Am Bb
Ninguém merece ser só mais um bonitinho
Bb             Am Bb
Nem transparecer...consciente conseqüente
Bb           Am Bb
Sem se preocupar em ser, adulto ou criança

Refrão:


E|---------------------------------------------------------|
B|---------------------------------------------------------|
G|---------------------------------------------------------|
D|--0-0-0-0--3-3-3-3--5-5-5-5---8--8--8--8-----------------|
A|--0-0-0-0--3-3-3-3--5-5-5-5---8--8--8--8-----------------|
D|--0-0-0-0--3-3-3-3--5-5-5-5---8--8--8--8-----------------|


Bb                    Gm
O importante é ser você
Bb                  Gm
mesmo que seja estranho,seja você
Bb               Gm               Bb
mesmo que seja bizarro,bizarro,bizarro
                 Gm
mesmo que seja estranho,seja você
Bb                Gm
Mesmo que seja


E|---------------------------------------------------------|
B|---------------------------------------------------------|
G|---------------------------------------------------------|
D|---6--5--3--0---5-6--5--3--0---6--5--3--0---5-6--5--3--0-|  (2x)
A|---6--5--3--0---5-6--5--3--0---6--5--3--0---5-6--5--3--0-|
D|---6--5--3--0---5-6--5--3--0---6--5--3--0---5-6--5--3--0-|

Gm          F5 Gm
Meu cabelo não é igual
Gm           F5 Gm
a sua roupa não é igual
Gm              F5 Gm
ao meu tamanho não é igual
Gm              F5 Gm
ao seu caráter não é igual
Gm     F5 Gm      F5 Gm          F5 Gm
não é igual,não é igual,não e iguaaaaaaal

Dedilhado:


E|------------------------------------    -------------------------------------
B|------------------------------------    -------------------------------------
G|-----9----9-------------------------    -----9----9-------10------10---------
D|--12---12----------10------10-------    --12---12------10-------10--10-------
A|-------------8--12----8-12----------    -------------8-----------------------
E|------------------------------------    -------------------------------------



E|------------------------------------    -------------------------------------
B|------------------------------------    -------------------------------------
G|-----9----9-------------------------    -----9----9-------10------10---------
D|--12---12----------10------10-------    --12---12------10-------10--10-------
A|-------------8--12----8-12----------    -------------8-----------------------
E|------------------------------------    -------------------------------------

  I had enough of it, but I don't care     I had enough of it, but I don't care


E|------------------------------------    -------------------------------------
B|------------------------------------    -------------------------------------
G|-----9----9-------------------------    -----9----9--10~--------9~-----------
D|--12---12----------10------10-------    --12---12----10~--------10~----------
A|-------------8--12----8-12----------    -------------8~---------8~-----------
E|------------------------------------    -------------------------------------

  I had enough of it, but I don't care     I had enough of it, but I dooon't


E|-------------------1212121212121212-
B|-------------------x-x-x-x-x-x-x-x--
G|-9-9-9-9-9-9-9-9---1010101010101010-
D|-1212121212121212-------------------
A|------------------------------------
E|------------------------------------

  caaaaaaaaaaaaaaaaaaaaaaaaaaaaaaaare

Verso:

Gm    F5 Gm
Diga
Gm           Gm           F5 Gm
quem você é, me diga
Gm                         F5 Gm
Me fale sobre sua estrada
Gm                         F5 Gm
Me conte sobre sua vida
Bb                    Gm
O importante é ser você
Bb                  Gm
mesmo que seja estranho,seja você
Bb               Gm               Bb
mesmo que seja bizarro,bizarro,bizarro
                 Gm
mesmo que seja estranho,seja você
Bb                Gm
Mesmo que seja

(Pré-Refrão)
Texto Colunas
Alterar tom ½ tom ½ tom
afinação acordes na letra esconder tabs mais »

Comentários (28)

  • isabelly isabelly: Postado em 31/03/2014 21:37

    tira, a mascara que cobre o seu rosto...

  • isabelly isabelly: Postado em 31/03/2014 21:31

    mesmo que seja estranho, seja vc acabei de beber a M u s i c a \_/

  • isabelly isabelly: Postado em 31/03/2014 21:30

    adorooooooooooooooo

  • matheus.augusto.961556 matheus.augusto.961556: Postado em 15/12/2013 11:15

    faz uma video aula pra ela, quero ela no violao

  • joana.pagliarin joana.pagliarin: Postado em 07/12/2013 20:42

    qual é o ritmo ?

  • Leety Leone Leety Leone: Postado em 30/01/2013 20:40

    Mtoo fácil a música, mais só não se esqueçam do DROP D ook?!! Fica esquisita sem dropar!

  • doopinho doopinho: Postado em 09/10/2012 16:38

    To na duvida, nao sei oque tocar quando entra no vocal.. tem como alguem ajudar ai? VALEU

  • daron_malakian daron_malakian: Postado em 13/08/2012 15:28

    essa musica e facil sim + nao e necessidade de humilhar os outros tds comessamos assim e qr tirar onda de bonzao vcs

  • Bia Bia: Postado em 03/08/2012 22:04

    Fik ai bancando o fodão soh pra humilhar os outros desculpa se não nascemos tocando igual vcs

Exibindo 10 de 28 comentários Mostrar mais ver todos »
Composição: André Mingau / Anthony Scott / Pitty
Esse não é o compositor? Avise-nos.
Contribuição: alohmann Correções: Bryan , RodrigoGoncalvesdasChagas1 e mais 7 »
  1. Tudo Que Você Quiser - Luan Santana Manteve-se 6.004 exibições
  2. Lepo Lepo - Psirico Manteve-se 4.431 exibições
  3. Mozão - Lucas Lucco Manteve-se 4.139 exibições
  4. Logo Eu - Jorge e Mateus Manteve-se 3.880 exibições
  5. Gaveta - Fernando e Sorocaba Manteve-se 3.331 exibições
  6. Pra Você - Onze:20 Manteve-se 3.309 exibições
  7. Só Os Loucos Sabem - Charlie Brown Jr. Manteve-se 3.010 exibições
  8. Tempo Perdido - Legião Urbana Manteve-se 2.530 exibições
  9. Fui Fiel - Gusttavo Lima Manteve-se 2.507 exibições
  10. Na Linha do Tempo - Victor e Leo Manteve-se 2.140 exibições
  1. Jorge e Mateus- Manteve-se 23.268 exibições
  2. Legião Urbana- Manteve-se 20.589 exibições
  3. Luan Santana- Manteve-se 17.386 exibições
  4. Charlie Brown Jr.- Manteve-se 17.172 exibições
  5. Fernandinho- Manteve-se 14.617 exibições
  6. Thalles Roberto- Manteve-se 11.189 exibições
  7. Católicas- Manteve-se 11.033 exibições
  8. Gusttavo Lima- Manteve-se 10.465 exibições
  9. Victor e Leo- Manteve-se 10.434 exibições
  10. Aline Barros- Manteve-se 10.076 exibições
Exibir acordes »

Cifras e tabs

Fórum Cifra Club

Aprenda

Cifra Club News

Mais Serviços Cifra Club ID

Studio Sol

©1996 - 2014 Cifra Club · o primeiro, maior e mais acessado do Brasil · 329 mil músicas · 5.9 milhões pessoas cadastradas

publicidade
fechar