Cifra Club

Admirável Chip Novo

Pitty

Cifra: Principal
exibições 803.408
Tom: F
Afinação Drop D: D  A  D  G  B  E 

Introdução: D5  C5  D5
            D5  Bb5  A5
            D5  C5  D5
            D5  Bb5  C5  Bb5  A5

            P.M               .
E|------------------------------------------|
B|------------------------------------------|
G|---------5---7------------3---2-----------|
D|---------5---7------------3---2-----------|
A|-0-0-0-0-3-0-5----0-0-0-0-1-0-0-----------|
E|-0-0-0-0---0------0-0-0-0---0-------------|

            P.M               .
E|------------------------------------------|
B|------------------------------------------|
G|---------5---7--------3-5-3---2-----------|
D|---------5---7--------3-5-3---2-----------|
A|-0-0-0-0-3-0-5----0-0-1-3-1---0-----------|
E|-0-0-0-0---0------0-0-------0-------------|


Primeira Parte:

(Riff)

E|-5-----------------------------5---------------------|
B|----6-----8--8-6-5-6-----6--------6------------------|
G|-------5--------------7-----7--------7---------------|   (3x)
D|-----------------------------------------------------|
A|-----------------------------------------------------|
E|-----------------------------------------------------|

E|-5---------------------------------------------------|
B|----6-----8--8-6-5-6--6------------------------------|
G|-------5--------------7------------------------------|
D|----------------------7------------------------------|
A|-----------------------------------------------------|
E|-----------------------------------------------------|

 D5
Pane no sistema
Alguém me desconfigurou
Aonde estão meus olhos de robô?
Eu não sabia
Eu não tinha percebido
Eu sempre achei que era vivo

 D5
Parafuso e fluido 
 
Em lugar de articulação
F5                   E5          Eb5
   Até achava que aqui batia um coração
 D5
Nada é orgânico

É tudo programado
F5                   E5         Eb5
   E eu achando que tinha me libertado
D5
   Mas lá vem eles novamente

Eu sei o que vão fazer

Reinstalar o sistema


Primeiro Refrão:

 D5
Pense, fale, compre, beba
 F5          E5        Eb5
Leia, vote, não se esqueça
D5
Use, seja, ouça, diga
 F5           E5     Eb5
Tenha, more, gaste, viva

 D5
Pense, fale, compre, beba
 F5          E5        Eb5
Leia, vote, não se esqueça
D5                    F5  E5  Eb5
Use, seja, ouça, diga


Passagem: G5

(Riff da Passagem)

E|-------------15---------------15---------------------|
B|----15---------------15---------------15----15-------|
G|-12-------12------12-------12------12----12----------|   (3x)
D|-----------------------------------------------------|
A|-----------------------------------------------------|
E|-----------------------------------------------------|

E|-------------15--------------------------------------|
B|----15---------------15------------------------------|
G|-12-------12------12---------------------------------|
D|-----------------------------------------------------|
A|-----------------------------------------------------|
E|-----------------------------------------------------|

Não, senhor, sim, senhor
Não, senhor, sim, senhor


Introdução: D5  C5  D5
            D5  Bb5  A5
            D5  C5  D5
            D5  Bb5  C5  Bb5  A5


Segunda Parte:

 D5
Pane no sistema
Alguém me desconfigurou
Aonde estão meus olhos de robô?
Eu não sabia
Eu não tinha percebido
Eu sempre achei que era vivo

 D5
Parafuso e fluido 
 
Em lugar de articulação
F5                   E5          Eb5
   Até achava que aqui batia um coração
 D5
Nada é orgânico

É tudo programado
F5                   E5         Eb5
   E eu achando que tinha me libertado
D5
   Mas lá vem eles novamente

Eu sei o que vão fazer

Reinstalar o sistema


Segundo Refrão:

 D5
Pense, fale, compre, beba
 F5          E5        Eb5
Leia, vote, não se esqueça
D5
Use, seja, ouça, diga
 F5           E5     Eb5
Tenha, more, gaste, viva

 D5
Pense, fale, compre, beba
 F5          E5        Eb5
Leia, vote, não se esqueça
D5                    F5  E5  Eb5
Use, seja, ouça, diga


Passagem: G5

Não, senhor, sim, senhor
Não, senhor, sim, senhor


Final:

D5
   Mas lá vem eles novamente
Eu sei o que vão fazer
Reinstalar o sistema
Acordes para:

    0 comentários

      mostrar mais comentários

      Conseguiu tocar?

      34tocaram2ainda não

      Grave um vídeo tocando Admirável Chip Novo e mande pra gente!

      00:00 / 00:00
      outros vídeos desta música
      repetirqualidadeautomática
      Outro vídeos desta música
        00:00 / 00:00
        automática
        Capítulos
        • Tocando a música
        • Dicas Iniciais / Equipamentos
        • Acordes da Introdução
        • Tocando a Introdução
        • Introdução - Parte 1 de 2
        • Introdução - Parte 2 de 2
        • Acordes da Primeira Parte
        • Tocando a Primeira Parte
        • Primeira Parte - Parte 1 de 2
        • Primeira Parte - Parte 2 de 2
        • Passagem para o Refrão
        • Ritmo da Primeira Parte
        • Acordes do Refrão
        • Tocando o Primeiro Refrão
        • Ritmo do Refrão
        • Tocando a Passagem
        • Passagem - Parte 1 de 2
        • Passagem - Parte 2 de 2
        • Encerramento
        • Ficha Técnica
        OK