Cifra Club

Evolution

311

Tab de baixo: Principal
Album: Soundsystem (1999)
Bassist: P-Nut
Tuning: B-E-A-D-G
Notes: 
 

Verse 1: 
G|--------------------------------------------------------------------|
D|--------------------------------------------------------------------|
A|--2h3h4----------2h3h4----------2h3h4----------2h3h4----------------|
E|---------0h2h3----------0h2h3----------0h2h3----------0h2h3--3-3-3--|
B|--------------------------------------------------------------------|

G|----------------------------------------------------------------|
D|----------------------------------------------------------------|
A|--4----------2h3h4----------2h3h4----------2h3h4----------------|
E|-----0h2h3----------0h2h3----------0h2h3----------0h2h3--3-3-3--|
B|----------------------------------------------------------------|


Chorus:
G|--------------------------------|
D|--------------------------------|
A|--------------------------------|
E|--7-5-4-5-4-5-7--7-5-4-5-4-5----|
B|-----------------------------0--| (x8)

G|---------------------------------------|
D|---------------------------------------|
A|----------1-1-1------------------------|
E|--3-3-3-----------0-0-0---0-0-0-1-1-1--|
B|---------------------------------------| (x4)


Verse 2:
G|----------------------------------------------------------------|
D|----------------------------------------------------------------|
A|--4----------2h3h4----------2h3h4----------2h3h4----------------|
E|-----0h2h3----------0h2h3----------0h2h3----------0h2h3--3-3-3--|
B|----------------------------------------------------------------|

G|----------------------------------------------------------------|
D|----------------------------------------------------------------|
A|--4----------2h3h4----------2h3h4----------2h3h4----------------|
E|-----0h2h3----------0h2h3----------0h2h3----------0h2h3--3-3-3--|
B|----------------------------------------------------------------|


Chorus:
G|--------------------------------|
D|--------------------------------|
A|--------------------------------|
E|--7-5-4-5-4-5-7--7-5-4-5-4-5----|
B|-----------------------------0--| (x8)

G|---------------------------------------|
D|---------------------------------------|
A|----------1-1-1------------------------|
E|--3-3-3-----------0-0-0---0-0-0-1-1-1--|
B|---------------------------------------| (x4)


Verse 3:
G|------------------------------------------------|
D|------------------------------------------------|
A|------------------------------------------------|
E|-------------------------------------------1h2--|
B|--2---2-----2---0-1-2-----2---2-----2---0-------|

G|----------------------------------------------------------------|
D|----------------------------------------------------------------|
A|--4----------2h3h4----------2h3h4----------2h3h4----------------|
E|-----0h2h3----------0h2h3----------0h2h3----------0h2h3--3-3-3--|
B|----------------------------------------------------------------|


Chorus:
G|--------------------------------|
D|--------------------------------|
A|--------------------------------|
E|--7-5-4-5-4-5-7--7-5-4-5-4-5----|
B|-----------------------------0--| (x8)


Break: Distortion Off
G|------------------------------------------------------------------|
D|------------------------------------------------------------------|
A|------------------------------------------------------------------|
E|--7\--------7\--------7\--------7\--------7\--------7\--------7\--|
B|------------------------------------------------------------------|


Chorus/Outro:
G|---------------------------------------|
D|---------------------------------------|
A|----------1-1-1------------------------|
E|--3-3-3-----------0-0-0---0-0-0-1-1-1--|
B|---------------------------------------| (x8)
00:00 / 00:00
Outros vídeos desta música
Repetir
Outros vídeos desta música
Composição de Chad Sexton / Nicholas Hexum / S.A. Martinez
252 exibições

0 comentários

Ver todos os comentários

Conseguiu tocar?

0 Tocaram 0 Ainda não

Grave um vídeo tocando Evolution e nos envie!

Entre para oCifra Club PRO

Tenha acesso a benefícios exclusivos no App e no Site

  • Chega de anúncios

  • Prioridade de compra em lançamentos

  • Mais recursos no app do Afinador

  • Atendimento Prioritário

  • Descontos nos produtos Cifra Club

  • Ajude a produzir mais conteúdo

00:00 / 00:00

Cifra Club Pro

Aproveite o Cifra Club com benefícios exclusivos e sem anúncios
Cifra Club Pro
Aproveite o Cifra Club com benefícios exclusivos e sem anúncios
OK