Cifra Club

Aprenda

Bem Mais Que Tudo (Above All)

Aline Barros

Cifra: Versão 3 (violão e guitarra)
tom: G
(intro)

E|-3--5/7--5------------------------------------|
B|--------------8--7--5---------5-7/8--7---8----|
G|--------------------------5h7-----------------|
D|----------------------------------------------|
A|----------------------------------------------|
E|----------------------------------------------|

                   C       D     G
Bem mais que as forças, poder e reis.
            C     D           G
Que a natureza e tudo que se fez.
    D/F#      Em       Em/D         C     G/B
Bem mais que tudo, criado por tuas mãos.
  Am        Am/G             D/F# G
Deus tu és início, meio e fim.

    G/B              C         D          G
Bem mais que os mares, bem mais que o sol.
          C             D         G
E as maravilhas que o mundo conheceu.
D/F#  Em     Em/D         C     G/B
As riquezas, tesouro dessa terra.
 Am        Am/G       B4
Incomparável és pra mim.

G    Am4/9        D         G
Por amor, sua vida entregou.
G    Am4/9        D      G
Meu senhor humilhado foi.
 D/F#       Em       Em/D         C   G/B
Como a flor machucada no jardim.
Am         Am/G  G/B            C     D   G
Morreu por mim... pensou em mim... me amou...

E|-3--5/7--5------------------------------------|
B|--------------8--7--5---------5-7/8--7---8----|
G|--------------------------5h7-----------------|
D|----------------------------------------------|
A|----------------------------------------------|
E|----------------------------------------------|

                   C       D     G
Bem mais que as forças, poder e reis.
            C     D           G
Que a natureza e tudo que se fez.
    D/F#      Em       Em/D         C     G/B
Bem mais que tudo, criado por tuas mãos.
  Am        Am/G             D/F# G
Deus tu és início, meio e fim.

    G/B              C         D          G
Bem mais que os mares, bem mais que o sol.
          C             D         G
E as maravilhas que o mundo conheceu.
D/F#  Em     Em/D         C     G/B
As riquezas, tesouro dessa terra.
 Am        Am/G       B4
Incomparável és pra mim.

G    Am4/9        D         G
Por amor, sua vida entregou.
G    Am4/9        D      G
Meu senhor humilhado foi.
 D/F#       Em       Em/D         C   G/B
Como a flor machucada no jardim.
Am         Am/G  G/B            C     D   G
Morreu por mim... pensou em mim... me amou...

  G    Am4/9        D         G
Por amor, sua vida entregou.
G    Am4/9        D      G
Meu senhor humilhado foi.
        Em       Em/D         C   G/B
Como a flor machucada no jardim.
Am         Am/G              C     D   G
Morreu por mim... pensou em mim... me amou...

        Em       Em/D         C   G/B
Como a flor machucada no jardim.
Am         Am/G              C     D   G
Morreu por mim... pensou em mim... me amou...


E|-3--5/7--5------------------------------------|
B|--------------8--7--5---------5-7/8--7---8----|
G|--------------------------5h7-----------------|
D|----------------------------------------------|
A|----------------------------------------------|
E|----------------------------------------------|

Repete o hino
Compositor não encontrado.
Colaboração e revisão:
  • Leonardo César
  • Diego Landi
11.582 exibições
    • ½ Tom
    • A
    • Bb
    • B
    • C
    • Db
    • D
    • Eb
    • E
    • F
    • F#
    • G
    • Ab
  • Adicionar à lista

    0 comentários

    Ver todos os comentários

    Conseguiu tocar?

    3 Tocaram 1 Ainda não

    Grave um vídeo tocando Bem Mais Que Tudo (Above All) e nos envie!

    00:00 / 00:00
    Outros vídeos desta música
    Repetir Qualidade Automático
    Outros vídeos desta música
    00:00 / 00:00
    Automático

    Cifra Club Pro

    Aproveite o Cifra Club com benefícios exclusivos e sem anúncios
    Cifra Club Pro
    Aproveite o Cifra Club com benefícios exclusivos e sem anúncios
    OK