Cifra Club

Aprenda

Ressuscita-me

Aline Barros

Cifra: Principal (violão e guitarra)
Tom: D
[Intro] C6  G/B  Bb6  D  A

Parte 1 de 2
   C6      G/B                Bb6
E|-5-------0-2-3--5--3--------3-----------------------|
B|-5---5-----------------3----3---3-------------------|
G|-0-0---0-------------0---0--0-0---------------------|
D|----------------------------------------------------|
A|-3-------3---------2--------1-----------------------|
E|----------------------------------------------------|

Parte 2 de 2
                D        A
E|-3p2-0-2-2h3--2-------------------------------------|
B|--------------3---3----2h3p2---2h3------------------|
G|--------------2-2---2--2-----4----------------------|
D|--------------0--------2----------------------------|
A|-----------------------0----------------------------|
E|----------------------------------------------------|

[Estrofes]

Parte 1 de 8
   D  A                Bm
E|-2--------------------------------------------------|
B|-3----------2----------------3----------------------|
G|-2------2---2---2--------4---4---4------------------|
D|-0----2---2---2---2----4---4---4---4----------------|
A|----0----------------2------------------------------|
E|----------------------------------------------------|

Parte 2 de 8
   G
E|----------------------------------------------------|
B|-----3----------------------------------------------|
G|-----0------2h4-2-0---------------------------------|
D|---0------0-----------------------------------------|
A|----------------------------------------------------|
E|-3------3-------------------------------------------|

Parte 3 de 8
   D  A                Bm
E|-2--------------------------------------------------|
B|-3----------2----------------3----------------------|
G|-2------2---2---2--------4---4---4------------------|
D|-0----2---2---2---2----4---4---4---4----------------|
A|----0----------------2------------------------------|
E|----------------------------------------------------|

Parte 4 de 8
   G             D9/F# Em          Em/D#
E|---------------------------------------0------------|
B|-----3----3----3-----------0---------0---0----------|
G|-----0----0----2---------0---0-----0-------0--------|
D|---0---0----0----0-----2-------2-1------------------|
A|----------------------------------------------------|
E|-3--------3----2-----0------------------------------|

Parte 5 de 8
   Em/D        C#m7(5-)
E|-------0--------------------------------------------|
B|-----0---0---------5--------------------------------|
G|---0-------0-----4---4------------------------------|
D|-0-------------5-------5----------------------------|
A|-------------4--------------------------------------|
E|----------------------------------------------------|

Parte 6 de 8
   G                       D              D/C#
E|-------------------------2-2------------------------|
B|-------3--3-3-3-3-3-3-3--3---3-------3------3-------|
G|-----0----0-0-0-0-0-0-0--2-----2---2------2---------|
D|---0------0-0-0-0-0-0-0--0-------0------------------|
A|----------------------------------------4-----------|
E|-3--------3-3-3-3-3-3-3-----------------------------|
            ↑ ↑ ↓ ↓ ↑ ↓ ↑

Parte 7 de 8
   Bm           Bm/A         G
E|----------------------------------------------------|
B|-------3------------3------------3------------------|
G|-----4---4--------4---4--------0---0----------------|
D|---4-------4----4-------4----0-------0--------------|
A|-2------------0-------------------------------------|
E|---------------------------3------------------------|

Parte 8 de 8
   D9/F#        Em                    A  A4
E|----------------------------------------------------|
B|-------2------------0------0---0----2--3------------|
G|-----0---0--------0---0----0---0----2--2------------|
D|---0-------0----2-------2----2---2--2--2------------|
A|------------------------------------0--0------------|
E|-2------------0------------0------------------------|

D                            A
  Mestre eu preciso de um milagre
Bm                                 G
   Transforma minha vida, o meu estado
D                                     A
  Faz tempo que não vejo a luz do dia
                                      Bm
Estão tentando sepultar minha alegria
                               G    D/F#  Em
Tentando ver meus sonhos cancelados

          Em/D#     Em/D               C#m7(5-)  G
Lázaro ouviu a Sua voz, quando aquela pedra removeu
                           D      D/C#  Bm                    
Depois de quatro dias ele reviveu
               Bm/A                 G
Mestre, não há outro que possa fazer
                     D9/F#           Em
Aquilo que só o Teu nome tem todo poder
                          A    A4
Eu preciso tanto de um milagre

[Refrão]

              D
Remove minha pedra
          A
Me chama pelo nome
            Bm
Muda minha história
                    G
Ressuscita os meus sonhos

                  D9/F#  G
Transforma minha vida
       A
Me faz um milagre
         C9
Me toca nessa hora
               G/B
Me chama para fora
 A          D
Ressuscita-me  

[Primeira Parte]   

D                            A
  Mestre eu preciso de um milagre
Bm                                 G
   Transforma minha vida, o meu estado
D                                     A
  Faz tempo que não vejo a luz do dia
                                      Bm
Estão tentando sepultar minha alegria
                               G    D/F#  Em
Tentando ver meus sonhos cancelados

          Em/D#     Em/D               C#m7(5-)  G
Lázaro ouviu a Sua voz, quando aquela pedra removeu
                           D      D/C#  Bm                    
Depois de quatro dias ele reviveu
               Bm/A                 G
Mestre, não há outro que possa fazer
                     D9/F#           Em
Aquilo que só o Teu nome tem todo poder
                          A    A4
Eu preciso tanto de um milagre     

[Refrão]

              D
Remove minha pedra
          A
Me chama pelo nome
            Bm
Muda minha história
                    G
Ressuscita os meus sonhos

                  D9/F#  G
Transforma minha vida
       A
Me faz um milagre
         C9
Me toca nessa hora
               G/B
Me chama para fora
 A          D
Ressuscita-me    

( G/B  A9/C# )

   D
Tu és a própria vida
   A9/C#
A força que há em mim
      Bm
Tu és o filho de Deus
       G
Que me ergue pra vencer

    D9/F#
Senhor de tudo em mim
   A
Já ouço a Tua voz
       Bm
Me chamando pra viver
        G
Uma história de poder!

[Refrão]

              E
Remove minha pedra
          B5(9)
Me chama pelo nome
            C#m
Muda minha história
                    A5(9)
Ressuscita os meus sonhos

                  E/G#  A5(9)
Transforma minha vida
       B5(9)
Me faz um milagre
         D5(9)
Me toca nessa hora
          A9/C#
Me chama para fora 

 B5(9)         
Ressuscita-me
 
( D5(9)  A9/C#  A9/C  B5(9) )

            E       
Ressuscita-me
Composição de Anderson Freire 3.210.825 exibições
  • Simplificar cifra
    • ½ Tom
    • A
    • Bb
    • B
    • C
    • Db
    • D
    • Eb
    • E
    • F
    • F#
    • G
    • Ab
  • Adicionar à lista

    0 comentários

    Mostrar mais comentários
    00:00 / 00:00
    outros vídeos desta música
    repetir qualidade Automático
    Outros vídeos desta música
    00:00 / 00:00
    Automático
    Capítulos
    • Início
    • Tocando a música
    • Acordes da Introdução
    • Tocando Introdução
    • Ensinando Introdução
    • Acordes da Primeira Parte
    • Tocando Primeira Parte
    • Ensinando Primeira Parte
    • Acordes do Refrão
    • Tocando Refrão
    • Ensinando Refrão
    • Tocando Primeira Parte
    • Ensinando Ritmo da Primeira Parte
    • Acordes Terceira Parte
    • Tocando Terceira Parte
    • Encerramento
    OK