Cifra Club

Done Somebody Wrong

Allman Brothers Band

Cifra: Principal (violão e guitarra)
tom: Db
E|--8\6---------|------------|---8\6---8-------------|
B|------8\6\4---|------------|-\8---/8---\6\4-----4/-|
G|-----------4-|------------|----------------4-4----|
E|--------------|------------|-----------------------|
B|--------------|------------|-----------------------|
E|--------------|------------|-----------------------|

E|-8\6-----/11-8-|---------/13|------------|------------|
B|-----8\6-------|------------|-/8-6\4-----|------------|
G|--------------|------------|--------4-4-|------------|
E|---------------|------------|------------|------------|
B|---------------|------------|------------|------------|
E|---------------|------------|------------|------------|

E|-8\6---/11-\8-|---------------|-----------------------|
B|-----8--------|-----/8--8\4---|----4-----/6-4---------|
G|-------------|-------------4-|-/4---4\2--------------|
E|--------------|---------------|-----------------------|
B|--------------|---------------|-----------------------|
E|--------------|---------------|-----------------------|
 "The bell has tolled, my baby's caught that train and gone."
E|---------------------------------------------------/11-------|
B|-------------------------------------------------------------|
G|------------------------------------------------------------|
E|-------------------------------------------------8-----------|
B|-------------------------------------------------------------|
E|-------------------------------------------------------------|
 "The bell has tolled, my baby's caught that train and gone."
E|------------------------------------------------------/8--------------|
B|---------------------------------------------------------8\6\4--------|
G|--------------------------------------------------------------4\-----|
E|-----------------------------------------------------8----------------|
B|----------------------------------------------------------------------|
E|----------------------------------------------------------------------|
 "It's all my fault, I must have done somebody wrong."
E|-----------------------------------------------/8------------|
B|-------------------------------------------------8\6-4----/4-|
G|-------------2/4--------------------------------------4-4---|
E|-------------------------------------------------------------|
B|-------------------------------------------------------------|
E|-------------------------------------------------------------|
 "Everything that happens, you know I am to blame."
E|-------------------------------------------------------------|
B|----------------------------------------------/8--\6---8v----|
G|------------------------------------------------8---8-------|
E|-------------------------------------------------------------|
B|-------------------------------------------------------------|
E|-------------------------------------------------------------|
 "Everything that happens, you know I am to blame."
E|-------------------------------------------/13-/11-8\6-------|
B|------------------------------------------------------8\6\4--|
G|----------------------------------------------------------4-|
E|-------------------------------------------------------------|
B|-------------------------------------------------------------|
E|-------------------------------------------------------------|
 "Gonna find myself a doctor, perhaps my luck will change."
E|-----------------------------------------------------------------|
B|------------------------/8-------------------------/8\6-4----4/--|
G|---------------------------------------------------------4-4----|
E|-----------------------------------------------------------------|
B|-----------------------------------------------------------------|
E|-----------------------------------------------------------------|

(solo harmonico)(1:23):  Slide guitar doesn't play anything, I'll just tab the rhythm chords.
E|-------|-------|-------|-------|
B|--8-8--|--8-8--|--8-8--|--8-8--|
G|-8-8--|--8-8--|--8-8--|--8-8--|
E|--8-8--|--8-8--|--8-8--|--8-8--|
B|--8-8--|--8-8--|--8-8--|--8-8--|
E|--8-8--|--8-8--|--8-8--|--8-8--|

E|-------|-------|-------|-------|
B|-13-13-|-13-13-|--8-8--|--8-8--|
 G|13-13-|-13-13-|--8-8--|--8-8--|
E|-13-13-|-13-13-|--8-8--|--8-8--|
B|-13-13-|-13-13-|--8-8--|--8-8--|
E|-13-13-|-13-13-|--8-8--|--8-8--|

E|--3-3--|--1-1--|-------|-------|
B|--3-3--|--1-1--|--8-8--|--8-8--|
G|-3-3--|--1-1--|--8-8--|--8-8--|
E|--3-3--|--1-1--|--8-8--|--8-8--|
B|--3-3--|--1-1--|--8-8--|--8-8--|
E|--3-3--|--1-1--|--8-8--|--8-8--|

E|-------|-------|-------|-------|
B|--8-8--|--8-8--|--8-8--|--8-8--|
G|-8-8--|--8-8--|--8-8--|--8-8--|
E|--8-8--|--8-8--|--8-8--|--8-8--|
B|--8-8--|--8-8--|--8-8--|--8-8--|
E|--8-8--|--8-8--|--8-8--|--8-8--|

E|-------|-------|-------|-------|
B|-13-13-|-13-13-|--8-8--|--8-8--|
 G|13-13-|-13-13-|--8-8--|--8-8--|
E|-13-13-|-13-13-|--8-8--|--8-8--|
B|-13-13-|-13-13-|--8-8--|--8-8--|
E|-13-13-|-13-13-|--8-8--|--8-8--|

E|--3-3--|--1-1--|-------|-------|
B|--3-3--|--1-1--|--8-8--|--8-8--|
G|-3-3--|--1-1--|--8-8--|--8-8--|
E|--3-3--|--1-1--|--8-8--|--8-8--|
B|--3-3--|--1-1--|--8-8--|--8-8--|
E|--3-3--|--1-1--|--8-8--|--8-8--|
GUITAR SOLO (without slide) (2:03):
E|-----6-8-8b---11-12-13-15-15b------------|
B|-8-8-------------------------------------|
G|----------------------------------------|
E|-----------------------------------------|
B|-----------------------------------------|
E|-----------------------------------------|

E|---11-13-15-11----11-11------------------11-------------|
B|---------------13-------13----13---13-13----13-11-13/16-|
G|--------------------------11----11---------------------|
E|--------------------------------------------------------|
B|--------------------------------------------------------|
E|--------------------------------------------------------|

E|----11-13-13b15b13p11-13-11-15b---15-13-11----11--------|
B|-13----------------------------------------13----13-13--|
G|-------------------------------------------------------|
E|--------------------------------------------------------|
B|--------------------------------------------------------|
E|--------------------------------------------------------|

E|------8---|
B|-1/8------|
G|---------|
E|----------|
B|----------|
E|----------|

E|------11------------11------------11----13b-13b-13b--|
B|-8/13----13---11-13----13---11-13----13--------------|
G|-----------11------------11-------------------------|
E|-----------------------------------------------------|
B|-----------------------------------------------------|
E|-----------------------------------------------------|

E|----11--------11-------15b17--15b17b15-11-------11--------|
B|-13----11-13-----11-13--------------------11h13----11-13--|
G|---------------------------------------------------------|
E|----------------------------------------------------------|
B|----------------------------------------------------------|
E|----------------------------------------------------------|

E|-11---------16----16--------------------------|
B|----11-16b-----16----16\13-11-13-13--11-13----|
G|---------------------------------------------|
E|----------------------------------------------|
B|----------------------------------------------|
E|----------------------------------------------|

E|----------------------|
B|-4/6-8--6---6---------|
G|---------7---7-4-4---|
E|----------------------|
B|----------------------|
E|----------------------|  END SOLO:  2:42
 "Ah, mama she told me these days would surely come."
E|----------------------------------------------|
B|----------------------------------------------|
G|---------------------------------------------|
E|----------------------------------------------|
B|----------------------------------------------|
E|----------------------------------------------|
 "I wouldn't listen to her, had to have my fun."
E|----------------------------------------------|
B|----------------------------------------------|
G|---------------------------------------------|
E|----------------------------------------------|
B|----------------------------------------------|
E|----------------------------------------------|
 "The bell has tolled, my baby caught that train and gone."
E|---------------/13-11----------------------------------13-13-13\11------|
B|----------------------------------------------------/13-----------13\11-|
G|-----------------------------------------------------------------------|
E|------------------------------------------------------------------------|
B|------------------------------------------------------------------------|
E|------------------------------------------------------------------------|
 "It's all my fault,  I must have done somebody wrong."
E|-----------------20\---------------------------------8\6---/11------|
B|--------------/20---------------------------------/8-----8----------|
G|-------------------------------------------------------------------|
E|--------------------------------------------------------------------|
B|--------------------------------------------------------------------|
E|--------------------------------------------------------------------|

E|-----------------/6-8-8-6---6-----11-/15-15-13-11-----|
B|------8-8\6--6-/8---------8---/13----------------13-13|
G|---8-------6-----------------------------------------|
E|-/8---------------------------------------------------|
B|------------------------------------------------------|
E|------------------------------------------------------|
SECOND SOLO (with slide) (3:07)
E|-/20-20\18---20-20---------------------------------|
B|----------/20-------/20-18/20\18-------/16-\13-13--|
G|--------------------20----------/17---------------|
E|---------------------------------------------------|
B|---------------------------------------------------|
E|---------------------------------------------------|

E|----15-13\11-13\11-/15--/13---/15--15-13-11\8------|
B|-/15-----------------------13----15-----------8----|
G|--------------------------------------------------|
E|---------------------------------------------------|
B|---------------------------------------------------|
E|---------------------------------------------------|

E|-/13---11-8\6---/8-8-/8-8-/8-8--|
B|----13--------8-----------------|
G|-------------------------------|
E|--------------------------------|
B|--------------------------------|
E|--------------------------------|

E|-/15---\13---\13---\13--\13--\13---/15--------|
B|----15----15-----15---15---15---15------------|
G|---------------------------------------------|
E|----------------------------------------------|
B|----------------------------------------------|
E|----------------------------------------------|

E|-/20\18---20-20--\13--\13--\13--\13--/15------|
B|-------/20----------15---15---15---15---------|
G|---------------------------------------------|
E|----------------------------------------------|
B|----------------------------------------------|
E|----------------------------------------------|

E|-/20-20\18-------------|
B|----------20\18\16-----|
G|-----------------16---|
E|-----------------------|
B|-----------------------|
E|-----------------------|

E|-/11---/11-\8\6--8-8-/11-11\8-8--13\11----/15-|
B|---------------/8----------------------13-----|
G|---------------------------------------------|
E|----------------------------------------------|
B|----------------------------------------------|
E|----------------------------------------------|

E|---\13---\13--\13--15--\13---/20-20/23-20-----|
B|-15---15----15---15--15---15------------------|
G|---------------------------------------------|
E|----------------------------------------------|
B|----------------------------------------------|
E|----------------------------------------------|

E|-------------------/11-11-\8--------|
B|-20\18-18\16------------------/4----|
G|------------16---------------------|
E|------------------------------------|
B|------------------------------------|
E|------------------------------------|
 "The bell has tolled, my baby caught that train and gone."
E|---------------------------------------------------------/11---|
B|----------------------------------------------------/4---------|
G|------------------------------------------------------4-------|
E|---------------------------------------------------------------|
B|---------------------------------------------------------------|
E|---------------------------------------------------------------|
 "The bell has tolled, my baby caught that train and gone."
E|------------------8\--------------------------------/8--6------------|
B|----------------/8------------------------------------8---6\4---4/6--|
G|-------------------------------------------------------------4------|
E|---------------------------------------------------------------------|
B|---------------------------------------------------------------------|
E|---------------------------------------------------------------------|
 "It's all my fault, I must of did somebody wrong."
E|--------------------------------------------------------|
B|---------------------------------------------/6\4-------|
G|-------------------------------------------------4-2/4-|
E|--------------------------------------------------------|
B|--------------------------------------------------------|
E|--------------------------------------------------------|

E|-/3-\1-/3---/3-\1---------------8/11--3\1/3--3\1-----|
B|---3--3-------3--3\1---/5\1---/8----------------/3---|
G|----------------------------------------------------|
E|-----------------------------------------------------|
B|-----------------------------------------------------|
E|-----------------------------------------------------|

E|----8\6-/8----/15-13-11\8--/15--\13--\13-11---------------|
B|-/8----8-----8----------------15---15-------15-15--9\8----|
G|--------------------------------------------------9\8----|
E|---------------------------------------------------9\8----|
B|---------------------------------------------------9\8----|
E|----------------------------------------------------------|

Composição de Clarence Lewis / Elmore James / Morgan Robinson
Colaboração e revisão:
  • Élison Duarte
274 exibições
    • ½ Tom
    • A
    • Bb
    • B
    • C
    • Db
    • D
    • Eb
    • E
    • F
    • F#
    • G
    • Ab
  • Adicionar à lista

    0 comentários

    Ver todos os comentários

    Conseguiu tocar?

    0 Tocaram 0 Ainda não

    Grave um vídeo tocando Done Somebody Wrong e nos envie!

    00:00 / 00:00
    Outros vídeos desta música
    Repetir Qualidade Automático
    Outros vídeos desta música
    00:00 / 00:00
    Automático

    Cifra Club Pro

    Aproveite o Cifra Club com benefícios exclusivos e sem anúncios
    Cifra Club Pro
    Aproveite o Cifra Club com benefícios exclusivos e sem anúncios
    OK