Cifra Club

Seven Turns Intro

Allman Brothers Band

Cifra: Principal (violão e guitarra)
tom: G


|----------------------------2--2--0----------|
|----------------------------3-------3--------|
|----------------------0-----2----------2--0--|
|-----------0-------2-----0-------------------|
|--------2-------3----------------------------|
|-----3---------------------------------------|

Guitar #2, the slide intro (standard tuning)
|---------------------------------------------|
|-------------------------12\10---------12/10-|
|-----2/4--0--2--h4~~2-----------12/14--------|
|-0-------------------------------------------|
|---------------------------------------------|
|---------------------------------------------|

Compositor não encontrado.
842 exibições
    • ½ Tom
    • A
    • Bb
    • B
    • C
    • Db
    • D
    • Eb
    • E
    • F
    • F#
    • G
    • Ab
  • Adicionar à lista

    0 comentários

    Ver todos os comentários

    Conseguiu tocar?

    0 Tocaram 0 Ainda não

    Grave um vídeo tocando Seven Turns Intro e nos envie!

    00:00 / 00:00
    Outros vídeos desta música
    Repetir Qualidade Automático
    Outros vídeos desta música
    00:00 / 00:00
    Automático

    Cifra Club Pro

    Aproveite o Cifra Club com benefícios exclusivos e sem anúncios
    Cifra Club Pro
    Aproveite o Cifra Club com benefícios exclusivos e sem anúncios
    OK