Cifra Club

Aprenda

Age Of Aquarius

Almah

Cifra: Intro (violão e guitarra)
tom: E (forma dos acordes no tom de F) Afinação: Eb Ab Db Gb Bb Eb
[Intro]
        D                  Gm/D               E7/D               Gm6/D
   eb|-2-----2-----2----|-6-----6-----6----|-4-----4-----4----|-3-----3-----3----|
   Bb|-3-----3-----3\---|-8-----8-----8----|-5-----5-----5----|-5-----5-----5----|
   Gb|----2-----2-----2-|----7-----7-----7-|----4-----4-----4-|----3-----3-----3-|
   Db|-0----------------|-0----------------|-0----------------|-0----------------|
   Ab|------------------|------------------|------------------|------------------|
   Eb|------------------|------------------|------------------|------------------|

        D                  Gm/D               F5/C               C/D
   eb|-2-----2-----2----|-6-----6-----6----|-8-----8-----8----|-3-----3-----3----|
   Bb|-3-----3-----3\---|-8-----8-----8----|-6-----6-----6----|-5-----5-----5----|
   Gb|----2-----2-----2-|----7-----7-----7-|----5-----5-----5-|----5-----5-----5-|
   Db|-0----------------|-0----------------|-0----------------|-0----------------|
   Ab|------------------|------------------|------------------|------------------|
   Eb|------------------|------------------|------------------|------------------|

        D                  Gm/D               E7/D               Gm6/D
   eb|-2-----2-----2----|-6-----6-----6----|-4-----4-----4----|-3-----3-----3----|
   Bb|-3-----3-----3\---|-8-----8-----8----|-5-----5-----5----|-5-----5-----5----|
   Gb|----2-----2-----2-|----7-----7-----7-|----4-----4-----4-|----3-----3-----3-|
   Db|-0----------------|-0----------------|-0----------------|-0----------------|
   Ab|------------------|------------------|------------------|------------------|
   Eb|------------------|------------------|------------------|------------------|

        D                  Gm/D               F5/C               C/D
   eb|-2-----2-----2----|-6-----6-----6----|-8-----8-----8----|-3-----3-----3----|
   Bb|-3-----3-----3\---|-8-----8-----8----|-6-----6-----6----|-5-----5-----5----|
   Gb|----2-----2-----2-|----7-----7-----7-|----5-----5-----5-|----5-----5-----5-|
   Db|-0----------------|-0----------------|-0----------------|-0----------------|
   Ab|------------------|------------------|------------------|------------------|
   Eb|------------------|------------------|------------------|------------------|

        A/D
   eb|-5-----5-----5----|-------5-|
   Bb|-5-----5-----5----|-----5---|
   Gb|----6-----6-----6-|---6-----|
   Db|-0----------------|-0-------|
   Ab|------------------|---------|
   Eb|------------------|---------|


       Dm                  A#/D               Dm                 C
       Walking through the night          I see you            away
   eb|-1-----1-----1-----|-1-----1-----1----|-1-----1-----1----|-0-----0-----0----|
   Bb|-3-----3-----3-----|-3-----3-----3----|-3-----3-----3----|-1-----1-----1----|
   Gb|----2-----2-----2--|----3-----3-----3-|----2-----2-----2-|----0-----0-----0-|
   Db|-0-----------------|-0----------------|-0----------------|------------------|
   Ab|-------------------|------------------|------------------|-3----------------|
   Eb|-------------------|------------------|------------------|------------------|


       Cm                 Gm7                Dsus4              D
        Lady of the        waters I'm        here                                 A
   eb|-3-----3-----3----|-3-----3-----3----|-3-----3-----3----|-2-----2-----2----|
   Bb|-4-----4-----4----|-3-----3-----3----|-3-----3-----3----|-3-----3-----3----|
   Gb|----5-----5-----5-|----3-----3-----3-|----2-----2-----2-|----2-----2-----2-|
   Db|------------------|------------------|-0----------------|-0----------------|
   Ab|-3----------------|------------------|------------------|------------------|
   Eb|------------------|-3----------------|------------------|------------------|


       Dm                 A#/D               Dm                 C
       woman in the       stars              Praise a new       age
   eb|-1-----1-----1----|-1-----1-----1----|-1-----1-----1----|-0-----0-----0----|
   Bb|-3-----3-----3----|-3-----3-----3----|-3-----3-----3----|-1-----1-----1----|
   Gb|----2-----2-----2-|----3-----3-----3-|----2-----2-----2-|----0-----0-----0-|
   Db|-0----------------|-0----------------|-0----------------|------------------|
   Ab|------------------|------------------|------------------|-3----------------|
   Eb|------------------|------------------|------------------|------------------|

       Cm                 A7
       Drawing            sings on the
   eb|-3-----3-----3----|-0-----0-----0----|
   Bb|-4-----4-----4----|-2-----2-----2----|
   Gb|----5-----5-----5-|----0-----0-----0-|
   Db|------------------|------------------|
   Ab|-3----------------|-0----------------|
   Eb|------------------|------------------|


       D                  Gm/D               E7/D               Gm6/D
       moon
   eb|-2-----2-----2----|-6-----6-----6----|-4-----4-----4----|-3-----3-----3----|
   Bb|-3-----3-----3\---|-8-----8-----8----|-5-----5-----5----|-5-----5-----5----|
   Gb|----2-----2-----2-|----7-----7-----7-|----4-----4-----4-|----3-----3-----3-|
   Db|-0----------------|-0----------------|-0----------------|-0----------------|
   Ab|------------------|------------------|------------------|------------------|
   Eb|------------------|------------------|------------------|------------------|


       D                  Gm/D               F5/C               C/D
                                                                               And 
   eb|-2-----2-----2----|-6-----6-----6----|-8-----8-----8----|-3-----3-----3----|
   Bb|-3-----3-----3\---|-8-----8-----8----|-6-----6-----6----|-5-----5-----5----|
   Gb|----2-----2-----2-|----7-----7-----7-|----5-----5-----5-|----5-----5-----5-|
   Db|-0----------------|-0----------------|-0----------------|-0----------------|
   Ab|------------------|------------------|------------------|------------------|
   Eb|------------------|------------------|------------------|------------------|


       Dm                  A#/D               Dm                 C
       for two thousand    years            A new time           awaits
   eb|-1-----1-----1-----|-1-----1-----1----|-1-----1-----1----|-0-----0-----0----|
   Bb|-3-----3-----3-----|-3-----3-----3----|-3-----3-----3----|-1-----1-----1----|
   Gb|----2-----2-----2--|----3-----3-----3-|----2-----2-----2-|----0-----0-----0-|
   Db|-0-----------------|-0----------------|-0----------------|------------------|
   Ab|-------------------|------------------|------------------|-3----------------|
   Eb|-------------------|------------------|------------------|------------------|


       Cm                 Gm7                Dsus4              D
       Glory,             Harmony and        Truth
   eb|-3-----3-----3----|-3-----3-----3----|-3-----3-----3----|-2-----2-----2----|
   Bb|-4-----4-----4----|-3-----3-----3----|-3-----3-----3----|-3-----3-----3----|
   Gb|----5-----5-----5-|----3-----3-----3-|----2-----2-----2-|----2-----2-----2-|
   Db|------------------|------------------|-0----------------|-0----------------|
   Ab|-3----------------|------------------|------------------|------------------|
   Eb|------------------|-3----------------|------------------|------------------|


       Dm                 A#/D               Dm                 C
       On pisces only     cries           In Crete Zeus        acclaimed       The
   eb|-1-----1-----1----|-1-----1-----1----|-1-----1-----1----|-0-----0-----0----|
   Bb|-3-----3-----3----|-3-----3-----3----|-3-----3-----3----|-1-----1-----1----|
   Gb|----2-----2-----2-|----3-----3-----3-|----2-----2-----2-|----0-----0-----0-|
   Db|-0----------------|-0----------------|-0----------------|------------------|
   Ab|------------------|------------------|------------------|-3----------------|
   Eb|------------------|------------------|------------------|------------------|


       Cm                 A7
       dawning of the     Age of            Aquarius
   eb|-3-----3-----3----|-0-----0-----0----|---------0-|
   Bb|-4-----4-----4----|-2-----2-----2----|-------2---|
   Gb|----5-----5-----5-|----0-----0-----0-|-----0-----|
   Db|------------------|------------------|---2-------|
   Ab|-3----------------|-0----------------|-0---------|
   Eb|------------------|------------------|-----------|
Composição de Eduardo Falaschi
Colaboração e revisão:
  • Lucas Silva
23 exibições
    • ½ Tom
    • A
    • Bb
    • B
    • C
    • Db
    • D
    • Eb
    • E
    • F
    • F#
    • G
    • Ab
  • Adicionar à lista

    0 comentários

    Ver todos os comentários

    Conseguiu tocar?

    0 Tocaram 0 Ainda não

    Grave um vídeo tocando Age Of Aquarius e nos envie!

    00:00 / 00:00
    Outros vídeos desta música
    Repetir Qualidade Automático
    Outros vídeos desta música
    00:00 / 00:00
    Automático

    Cifra Club Pro

    Aproveite o Cifra Club com benefícios exclusivos e sem anúncios
    Cifra Club Pro
    Aproveite o Cifra Club com benefícios exclusivos e sem anúncios
    OK