Cifra Club

Aprenda

Birds Of Prey

Almah

Cifra: Solos (violão e guitarra)
tom: Db
Afinação em Drop C#

D# A# F# C# G# C# ou então Eb Bb Gb Db Ab Db

Guitarra 1

  S S S S S S S S S S S S  S  S S S
------------------------------------|
--------------6---5---6---10p-6---8-|
------7---6-----7---6---7-------7---|
----7---7---7-----------------------|
--5---------------------------------|
------------------------------------|

  S  S  S  S S  S  S  S S S S  S  S  S  S  S
----------------------------8----13p-8-------|
------------------10----8-----10-------10----|
-------10----9-------10---9---------------10-|
----10----10---10----------------------------|
--8------------------------------------------|
---------------------------------------------|

   S  S  S  S  S  S  S  S  S  S  S  S  S  S S  S
--16-15-13---------------------------------------|
-----------15------------------------------------|
--------------16-15-13----16----------13---------|
-----------------------15----15-12-15----12-9-12-|
-------------------------------------------------|
-------------------------------------------------|

  S  S S  S  S  S  S  S  S  S  S  S  S  S  S   S
-------9-10-12-17-14-12-21-19-17-----------------|
----10---------------------------17--------------|
--9---------------------------------18-----------|
---------------------------------------19--------|
------------------------------------------19p-16-|
-------------------------------------------------|

   S  S  S   S  S   S  S  S  S   S  S  S  S  S  S  S
---------------18p-15-------15p-10-------------------|
----------------------15-----------11----------------|
-----15-19p-15-----------15--------------12-15-10-15-|
--17----------------------------------12-------------|
-----------------------------------------------------|
-----------------------------------------------------|

   S S S  S  S  S S  S  S   S   S  S  S   S  S  S
-----------------------15p-13p-10-----------------|
----------------------------------12--------------|
-------7-10-12-10-7-10---------------12p-10-------|
-----9--------------------------------------12----|
--10-------------------------------------------14-|
--------------------------------------------------|

   S S  S  S S  S S  S  S  S S  S  S  S S  S
---------------------------------------------|
---------------------------------------------|
-------------9-12-7-12----12---12----12-7-12-|
--10-9-10-12-----------10----9----10---------|
---------------------------------------------|
---------------------------------------------|

  S  S  S  S S  S  S S   S  S  S  S  S  S  S  S
---------------------8h-13p-8-------17-15-13----|
------------------10----------10p-8----------13-|
----------10-9-10-------------------------------|
-------10---------------------------------------|
--8-12------------------------------------------|
------------------------------------------------|

   S  S  S  S  S  S  S  S  S  S  S  S  S  S  S  S
--17-16-15-13-------------------------------------|
--------------16----------------------------------|
-----------------17-16-15-14----14----------14-17-|
-----------------------------15----15-13-15-------|
--------------------------------------------------|
--------------------------------------------------|

   S  S   S  S  S   S  S   S  S   S  S  S  S  S  S  S
------------10--------13p-10-18p-13-------------------|
------------------------------------15-13----------13-|
-----10h-15----15p-10---------------------15-14-15----|
--12--------------------------------------------------|
------------------------------------------------------|
------------------------------------------------------|

   S   S  S  S   S  S  S  S  S  S  S  S  S  S  S  S
--14p-10--------------------------------17-16-15-14-|
---------13-----------------------------------------|
------------14p-11----11-14-17-16-15-14-------------|
-------------------12-------------------------------|
----------------------------------------------------|
----------------------------------------------------|

   S   S  S  S  S  S  S  S  S  S  S  S  S  S  S  S
--15p-10-------------------------------------------|
---------11-------------13----------15-16-15-13----|
------------11-12-11-12----12-11-12-------------14-|
---------------------------------------------------|
---------------------------------------------------|
---------------------------------------------------|

   S   S  S  S  S  S   S  S  S  S  S  S  S  S  S  S
--15p-12----------12h-15-12-18-17-16-15----------15-|
---------13----13-----------------------17----17----|
------------15-----------------------------15-------|
----------------------------------------------------|
----------------------------------------------------|
----------------------------------------------------|

   S   S   S  S  S  S  S  S  S  S  S  S  S  S  S  S
--17p-15p-13----------13-15-20-18-17----------------|
-------------13----13----------------20-18-17-------|
----------------14----------------------------19-17-|
----------------------------------------------------|
----------------------------------------------------|
----------------------------------------------------|

   S   S  S  S  S   S  S  S   S  S  S  S  S  S  S  S
------------13-16p-13----18p-13----16-15-13----------|
---------15-----------15--------15----------16-15-13-|
--13h-15---------------------------------------------|
-----------------------------------------------------|
-----------------------------------------------------|
-----------------------------------------------------|

   S  S  S  S  S  S  S  S  S  S  S  S  S  S  S  S
--16-18-15-18-13-18----18----18----18-------------|
--------------------16----15----------16-18-16-15-|
--------------------------------15----------------|
--------------------------------------------------|
--------------------------------------------------|
--------------------------------------------------|

   S  S  S  S  S  S  S  S  S  S  S  S  S  S  S  S
--17-15-14----------------------------------------|
-----------17-15-14-------------------------------|
--------------------16-14-12----------------12-14-|
-----------------------------16-14-12-14-16-------|
--------------------------------------------------|
--------------------------------------------------|

   S   S  S  S  S   S   S  S  S  S  S   S S   S  S  S    W
--17p-14----------------------------------------------|-------------------|
---------15-------------------------------------------|-------------------|
------------14-11h-14p-11----11-----------------------|-------------------|
--------------------------12----12--------------------|-------------------|
-----------------------------------12p-10-9h-10p-9----|-------------------|
---------------------------------------------------12-|-------------------|

-------------------|-------------------|-------------------|-------------------|
-------------------|-------------------|-------------------|-------------------|
-------------------|-------------------|-------------------|-------------------|
-------------------|-------------------|-------------------|-------------------|
-------------------|-------------------|-------------------|-------------------|
-------------------|-------------------|-------------------|-------------------|

                      W                   S S Q    S S S S Q    S S
-------------------|-------------------|----------------------------|
-------------------|-------------------|----------------------------|
-------------------|-------------------|--7-6-7--------9-7-9--------|
-------------------|-------------------|-----------7-8----------7-8-|
-------------------|-------------------|----------------------------|
-------------------|-------------------|----------------------------|

   S S  Q     S   S  S  S  S  S   S  S  S   S    S S Q    S S S S Q    S S
-----------------------------13p-10----12p-10-|----------------------------|
------------------------------------10--------|----------------------------|
--10-9-10-----------10p-9---------------------|--7-6-7--------9-7-9--------|
-------------11h-12-------11------------------|-----------7-8----------7-8-|
----------------------------------------------|----------------------------|
----------------------------------------------|----------------------------|

   S S  Q     S   S  S  S  S  S   S  S  S   S    S S Q    S S S S Q    S S
-----------------------------13p-10----15p-10-|----------------------------|
------------------------------------10--------|----------------------------|
--10-9-10-----------10p-9---------------------|--7-6-7--------9-7-9--------|
-------------11h-12-------11------------------|-----------7-8----------7-8-|
----------------------------------------------|----------------------------|
----------------------------------------------|----------------------------|

   S  S  Q     S  S  H
-------------------------------|
-------------------------------|
--12-10-12----10-12-13b--------|
-------------------------------|
-------------------------------|
-------------------------------|

   |--6-| |-6-|                     |---6--|  |---6--|  |---6--|  |---6--|
   S  S S S S S T  T T T T T  T  T  S   S  S  S  S   S  S   S  S  S  S   S
--10p-5--------------------5-10p-5-13p-10----10-12p-10-12p-10----10-13p-10-|
--------6----------------6----------------10------------------10-----------|
----------7------------7---------------------------------------------------|
------------7--------7-----------------------------------------------------|
--------------8-5h-8-------------------------------------------------------|
---------------------------------------------------------------------------|

   |---6--|  |--6--|                           |--6--|  |--6--|
   S   S  S  S  S  S  T  T  T  T  T  T  T   T  S  S  S  S  S  S  Q
--17p-13----------------------------13-17p-13-18-17-15----------------|
---------15----------------------15--------------------18-17-15-14----|
------------14----------------14--------------------------------------|
---------------15----------15-----------------------------------------|
------------------17-12-17--------------------------------------------|
----------------------------------------------------------------------|

  Q    H.
--------------------||
--------------------||
--------------------||
--0-----------------||
--0-----------------||
--0-----------------||

Guitarra 2

  W
|-------------------|
|-------------------|
|-------------------|
|-------------------|
|-------------------|
|-------------------|

-------------------|-------------------|-------------------|-------------------|
-------------------|-------------------|-------------------|-------------------|
-------------------|-------------------|-------------------|-------------------|
-------------------|-------------------|-------------------|-------------------|
-------------------|-------------------|-------------------|-------------------|
-------------------|-------------------|-------------------|-------------------|

-------------------|-------------------|-------------------|-------------------|
-------------------|-------------------|-------------------|-------------------|
-------------------|-------------------|-------------------|-------------------|
-------------------|-------------------|-------------------|-------------------|
-------------------|-------------------|-------------------|-------------------|
-------------------|-------------------|-------------------|-------------------|

-------------------|-------------------|-------------------|-------------------|
-------------------|-------------------|-------------------|-------------------|
-------------------|-------------------|-------------------|-------------------|
-------------------|-------------------|-------------------|-------------------|
-------------------|-------------------|-------------------|-------------------|
-------------------|-------------------|-------------------|-------------------|

-------------------|-------------------|-------------------|-------------------|
-------------------|-------------------|-------------------|-------------------|
-------------------|-------------------|-------------------|-------------------|
-------------------|-------------------|-------------------|-------------------|
-------------------|-------------------|-------------------|-------------------|
-------------------|-------------------|-------------------|-------------------|

-------------------|-------------------|-------------------|
-------------------|-------------------|-------------------|
-------------------|-------------------|-------------------|
-------------------|-------------------|-------------------|
-------------------|-------------------|-------------------|
-------------------|-------------------|-------------------|

   |---6--|  |--6--|  |---6--|  |--6--|  |---6--|  |--6--|  |--6--|  |--6--|
   S   S  S  S  S  S  S   S  S  S  S  S  S   S  S  S  S  S  S  S  S  S  S  S
--22p-17----17---------------------------------------------------------------|
---------22----22-17-21p-17----17--------------------------------------------|
----------------------------22----22-17-21p-17----17----------------17-19-21-|
-----------------------------------------------21----21-19-18-19-21----------|
-----------------------------------------------------------------------------|
-----------------------------------------------------------------------------|
                                                              \1/
   |--6--|  |--6--|
   S  S  S  S  S  S  Q      H            Q     S  S   S   S   H
-----------19-20-22-24b----24--------|--19-----L-20p-19p-17p-16--------|
-------------------------------------|---------------------------------|
--19-21-22---------------------------|---------------------------------|
-------------------------------------|---------------------------------|
-------------------------------------|---------------------------------|
-------------------------------------|---------------------------------|

                        |------11-----|   |------11----|  |---10-|  |-------10--
  T  T  T T  T  T T  T  T   T  T  T   T   T   T  T  T  S  T   T  T  T   T   T
------------------8-12-13p-10----------------------12-15-20p-17-----------------
---------------10-------------12----------------13--------------18--------------
-------12-9-10-------------------12p-10s-12h-14--------------------19p-17s-12h-1
----10--------------------------------------------------------------------------
--8-----------------------------------------------------------------------------
--------------------------------------------------------------------------------

                          \1/
   9  9 9 9  9  9 9 9  9
   T  T T T  T  T T T  T  H.
--10p-7--------------------------------|-------------------|
--------8------------------------------|-------------------|
----------9p-7s-4----------------------|-------------------|
------------------5--------------------|-------------------|
--------------------7p-3p-0------------|-------------------|
---------------------------------------|-------------------|

   S S  Q     S  S  S  S  Q     S  S
-------------------------------------|
-------------------------------------|
--10-9-10----------12-10-12----------|
-------------11-12-------------11-12-|
-------------------------------------|
-------------------------------------|

   S  S  Q     S   S  S   S  S  S   S  S  S   S
-------------------------------17p-13----15p-13-|
--------------------------------------15--------|
--14-12-14-----------14p-12---------------------|
--------------14h-15--------15------------------|
------------------------------------------------|
------------------------------------------------|

   S S  Q     S  S  S  S  Q     S  S
-------------------------------------|
-------------------------------------|
--10-9-10----------12-10-12----------|
-------------11-12-------------11-12-|
-------------------------------------|
-------------------------------------|

   S  S  Q     S   S  S   S  S  S   S  S  S   S
-------------------------------17p-13----15p-13-|
--------------------------------------15--------|
--14-12-14-----------14p-12---------------------|
--------------14h-15--------15------------------|
------------------------------------------------|
------------------------------------------------|

   S S  Q     S  S  S  S  Q     S  S     S  S  Q     S  S  H
-------------------------------------|-------------------------------|
-------------------------------------|-------------------------------|
--10-9-10----------12-10-12----------|--15-14-15----14-15-17b--------|
-------------11-12-------------11-12-|-------------------------------|
-------------------------------------|-------------------------------|
-------------------------------------|-------------------------------|

   |---6--|  |--6--|                           |---6--|  |---6--|  |---6--|  |--
   S   S  S  S  S  S T   T  T  T  T  T  T   T  S   S  S  S  S   S  S   S  S  S
--13p-10----------------------------10-13p-10-17p-13----13-15p-13-15p-13----13-1
---------10----------------------10------------------15------------------15-----
------------10----------------10------------------------------------------------
---------------12----------12---------------------------------------------------
------------------12-8h-12------------------------------------------------------
--------------------------------------------------------------------------------

   |---6--|  |--6--|                           |--6--|  |--6--|
   S   S  S  S  S  S  T  T  T  T  T  T  T   T  S  S  S  S  S  S  Q
--22p-17----------------------------17-22p-17-15-22-18----------------|
---------18----------------------18--------------------22-20-18-17----|
------------19----------------19--------------------------------------|
---------------19----------19-----------------------------------------|
------------------20-17-20--------------------------------------------|
----------------------------------------------------------------------|

  Q    H.
--------------------||
--------------------||
--------------------||
--0-----------------||
--0-----------------||
--0-----------------||
Composição de Edu Falaschi
Colaboração e revisão:
  • Thyerrí Cruz
1.765 exibições
    • ½ Tom
    • A
    • Bb
    • B
    • C
    • Db
    • D
    • Eb
    • E
    • F
    • F#
    • G
    • Ab
  • Adicionar à lista

    0 comentários

    Ver todos os comentários

    Conseguiu tocar?

    1 Tocaram 0 Ainda não

    Grave um vídeo tocando Birds Of Prey e nos envie!

    00:00 / 00:00
    Outros vídeos desta música
    Repetir Qualidade Automático
    Outros vídeos desta música
    00:00 / 00:00
    Automático

    Cifra Club Pro

    Aproveite o Cifra Club com benefícios exclusivos e sem anúncios
    Cifra Club Pro
    Aproveite o Cifra Club com benefícios exclusivos e sem anúncios