Cifra Club

Aprenda

Flavor Of The Week

American Hi-Fi

Cifra: Principal (violão e guitarra)
tom: Bb
Essa musica eh muito simples,
apenas preste atençao nas batidas da musica.

Intro    3x
   F   G    G    G     
E|--1---33---33---33----0-0-0-0-0------------------------------------
a|--3---55---55---55----2-2-2-2-2------------------------------------
d|--3---55---55---55----2-2-2-2-2------------------------------------
g|-------------------------------------------------------------------
b|-------------------------------------------------------------------
e|-------------------------------------------------------------------
 
Essa parte eh abafada....

Bb              F
She painted her nails
                 G
and she don't know
             Eb
he's got her best friend on the phone
Bb              F  
she'll wash her hair
               G         Eb     
his dirty clothes are all he gives to her


Agora eh normal....
Bb       G           F                  
And he's got posters on the wall
riff1
of all the girls he wish she was

and he means everything to her

riff1
E|------------------------------------------
a|----------------8-7-----------------------
d|---8-8-8-8-8-8------8~~~~~~---------------
g|------------------------------------------
b|------------------------------------------
e|------------------------------------------|

Refrão
Bb
Her boyfriend 
F
he don't know
Bb            Eb
anything about her
Bb          
he's too stoned
F
Nintendo
Bb                  Eb           riff2
i wish that i could make her see
                                 riff3
she's just the flavor of the week

She's just the flavor of the week




riff2
E|---------------------------------------------------
a|---------------------------------------------------
d|--------3--------5---------------------------------
g|---5b-3---5b--3------------------------------------
b|---------------------------------------------------
e|---------------------------------------------------

riff3
E|-----------------------------------------------------------
a|-----------------------------------------------------------
d|--------3--------------8b----------------------------------
g|---5b-3---5b--3--7~~~~-----7---5---3-----------------------
b|-----------------------------------------------------------
e|-----------------------------------------------------------

segunda parte eh a mesma sequencia da primeira parte

It's friday night
she's all alone
he's a million miles away
And she's dressed to kill
the tv's on
he's connected to the sound
and he's got pictures on the wall
riff1
off all the gir's he loved before
and she know all his favourite songs


refrao
ai no final do refrao ele faz uma coisa assim
E|-------------------------------------------------------------------
a|-------------------------------------------------------------------
d|--------3----------------------------------------------------------
g|---5b-3---5b--3--7--9--11--13--13--7--9--11--13--13----------------
b|-------------------------------------------------------------------
e|-------------------------------------------------------------------
solinho

entra um refrao com uma guitarra solo sem a base
Her boyfriend 
he don't know
anything about her
Bb
he's too stoned
F
he's too stoned
G
he's too stoned
Eb
he's too stoned

Refrao mesma sequencia da primeira parte
Compositor não encontrado.
10.587 exibições
    • ½ Tom
    • A
    • Bb
    • B
    • C
    • Db
    • D
    • Eb
    • E
    • F
    • F#
    • G
    • Ab
  • Adicionar à lista

    0 comentários

    Ver todos os comentários

    Conseguiu tocar?

    0 Tocaram 0 Ainda não

    Grave um vídeo tocando Flavor Of The Week e nos envie!

    00:00 / 00:00
    Outros vídeos desta música
    Repetir Qualidade Automático
    Outros vídeos desta música
    00:00 / 00:00
    Automático

    Cifra Club Pro

    Aproveite o Cifra Club com benefícios exclusivos e sem anúncios
    Cifra Club Pro
    Aproveite o Cifra Club com benefícios exclusivos e sem anúncios
    OK