Cifra Club

Aprenda

The art of losing

American Hi-Fi

Cifra: Principal (violão e guitarra)
tom: C
Intro
e   |-----------------------------------|
B   |-----------------------------------|
G   |-----------------------------------| X6
D   |--0-0-0-2-2------------------------|
A   |--0-0-0-2-2------------------------|
D   |--0-0-0-2-2------------------------|

       Verso
Guitar 1
e   |--------------------------------------|          Guitar 1     2    Guitar 2   9
B   |--------------------------------------|                       2               9
G   |--------------------------------------|         
D   |--0-0-0-2-2-------------0-0-0-2-2-----|                
A   |--0-0-0-2-2-------------0-0-0-2-2-----|                       
D   |--0-0-0-2-2-------------0-0-0-2-2-----|

               
Guitar 2
e   |--------------------------------------------------|
B   |--------------------------------------------------|
G   |----------9-9-7-7-9-9-7-7-------9-9-7-7-9-9-------| 
D   |----------9-9-7-7-9-9-7-7-------9-9-7-7-9-9-------|
A   |----------7-7-5-5-7-7-5-5-------7-7-5-5-7-7-------|
D   |--------------------------------------------------|

       

e   |-------------------------------------|
B   |-------------------------------------|
G   |--7-7-7-7-7-7-7-7-5-5-5-5-7-7-7-7----| 
D   |--7-7-7-7-7-7-7-7-5-5-5-5-7-7-7-7----|X1
A   |--5-5-5-5-5-5-5-5-3-3-3-3-5-5-5-5----|
D   |-------------------------------------|

       
    Chorus
e   |-----------------------------------|
B   |-----------------------------------|
G   |----------5-5-5-5---------7-7-7-7--| X3
D   |--2-2-2-2-5-5-5-5-5-5-5-5-7-7-7-7--|
A   |--2-2-2-2-3-3-3-3-5-5-5-5-5-5-5-5--|
D   |--2-2-2-2---------5-5-5-5----------| 

e   |-----------------------------------|
B   |-----------------------------------|
G   |-----------------5-5-5-5-7-7-7-7---| X1
D   |-2-2-2-2-2-2-2-2-5-5-5-5-7-7-7-7---|
A   |-2-2-2-2-2-2-2-2-3-3-3-3-5-5-5-5---|
D   |-2-2-2-2-2-2-2-2-------------------|

       
Slow Part!
e   |-----------------2---------------2---|
B   |-------3-------3---------3-------3---|
G   |-0-2-0---0-2-0-----0-2-0---0-2-0-2---|X1
D   |---------------------------------0---|
A   |-------------------------------------|
D   |-------------------------------------|

solo
e   |----------------------------|
B   |----------------------------|
G   |-----------7-7-7-9-9-9-9----|X3
D   |-0-0-0-2-2-7-7-7-9-9-9-9----|
A   |-0-0-0-2-2-5-5-5-7-7-7-7----|
D   |-0-0-0-2-2------------------|

e   |------------------------------------------------|
B   |------------------------------------------------|
G   |-----------12-12-12-12-12-12-15-15-15-15-15-15--|
D   |-0-0-0-2-2-12-12-12-12-12-12-15-15-15-15-15-15--|X1
A   |-0-0-0-2-2-10-10-10-10-10-10-13-13-13-13-13-13--|
D   |-0-0-0-2-2--------------------------------------|

Outro

e   |----------------------------------|
B   |----------------------------------|
G   |---------7-7-7-7-5-5-5-5-7-7-7-7--|
D   |-5-5-5-5-7-7-7-7-5-5-5-5-7-7-7-7--|X3
A   |-5-5-5-5-5-5-5-5-3-3-3-3-5-5-5-5--|
D   |-5-5-5-5--------------------------|

e   |-----------------------------------------|
B   |-----------------------------------------|
G   |---------7-7-7-7-5-5-5-5-7-7-7-7-7-7-7-7-|
D   |-5-5-5-5-7-7-7-7-5-5-5-5-7-7-7-7-7-7-7-7-|X1
A   |-5-5-5-5-5-5-5-5-3-3-3-3-5-5-5-5-5-5-5-5-|
D   |-5-5-5-5---------------------------------|

e   |------------|
B   |------------|
G   |------------|
D   |-0-0-0-2-2--|X1
A   |-0-0-0-2-2--|
D   |-0-0-0-2-2--|

Essa é muito boa!!!
Tablatura enviada pelo Gabriel P. da banda Impactous
Composição de Stacy Jones
Colaboração e revisão:
  • Gabriel Pastore
5.231 exibições
    • ½ Tom
    • A
    • Bb
    • B
    • C
    • Db
    • D
    • Eb
    • E
    • F
    • F#
    • G
    • Ab
  • Adicionar à lista

    0 comentários

    Ver todos os comentários

    Conseguiu tocar?

    0 Tocaram 0 Ainda não

    Grave um vídeo tocando The art of losing e nos envie!

    00:00 / 00:00
    Outros vídeos desta música
    Repetir Qualidade Automático
    Outros vídeos desta música
    00:00 / 00:00
    Automático

    Cifra Club Pro

    Aproveite o Cifra Club com benefícios exclusivos e sem anúncios
    Cifra Club Pro
    Aproveite o Cifra Club com benefícios exclusivos e sem anúncios
    OK